ISO-10303-21;
HEADER;
FILE_DESCRIPTION( ( 'Unknown' ), '1' );
FILE_NAME( 'S:/LEAVE 2D&3D CAD/LEAVE 3D-PAR/Metric/PT/PT44-3D/PT44-2230-20.stp', 'Unknown', ( 'Unknown' ), ( 'Unknown' ), 'XStep 1.0', 'Unknown', '  ' );
FILE_SCHEMA( ( 'CONFIG_CONTROL_DESIGN' ) );
ENDSEC;
DATA;
#1 = DESIGN_CONTEXT( '', #27, 'design' );
#2 = APPLICATION_PROTOCOL_DEFINITION( 'INTERNATIONAL STANDARD', 'config_control_design', 1994, #27 );
#3 = PRODUCT_CATEGORY_RELATIONSHIP( 'NONE', 'NONE', #28, #29 );
#4 = DATE_AND_TIME( #30, #31 );
#5 = DATE_TIME_ROLE( 'creation_date' );
#6 = DATE_TIME_ROLE( 'classification_date' );
#7 = PERSON_AND_ORGANIZATION_ROLE( 'creator' );
#8 = PERSON_AND_ORGANIZATION_ROLE( 'design_supplier' );
#9 = PERSON_AND_ORGANIZATION_ROLE( 'classification_officer' );
#10 = PERSON_AND_ORGANIZATION_ROLE( 'design_owner' );
#11 = APPROVAL_PERSON_ORGANIZATION( #32, #33, #34 );
#12 = APPROVAL_DATE_TIME( #4, #33 );
#13 = CC_DESIGN_APPROVAL( #33, ( #35, #36, #37 ) );
#14 = CC_DESIGN_DATE_AND_TIME_ASSIGNMENT( #4, #5, ( #37 ) );
#15 = CC_DESIGN_DATE_AND_TIME_ASSIGNMENT( #4, #6, ( #35 ) );
#16 = CC_DESIGN_PERSON_AND_ORGANIZATION_ASSIGNMENT( #32, #10, ( #38 ) );
#17 = CC_DESIGN_PERSON_AND_ORGANIZATION_ASSIGNMENT( #32, #7, ( #37 ) );
#18 = CC_DESIGN_PERSON_AND_ORGANIZATION_ASSIGNMENT( #32, #7, ( #36 ) );
#19 = CC_DESIGN_PERSON_AND_ORGANIZATION_ASSIGNMENT( #32, #8, ( #36 ) );
#20 = CC_DESIGN_SECURITY_CLASSIFICATION( #35, ( #36 ) );
#21 = CC_DESIGN_PERSON_AND_ORGANIZATION_ASSIGNMENT( #32, #9, ( #35 ) );
#22 = SHAPE_DEFINITION_REPRESENTATION( #39, #40 );
#23 =  ( GEOMETRIC_REPRESENTATION_CONTEXT( 3 )GLOBAL_UNCERTAINTY_ASSIGNED_CONTEXT( ( #43 ) )GLOBAL_UNIT_ASSIGNED_CONTEXT( ( #45, #46, #47 ) )REPRESENTATION_CONTEXT( 'NONE', 'WORKSPACE' ) );
#27 = APPLICATION_CONTEXT( 'CONFIGURATION CONTROLLED 3D DESIGNS OF MECHANICAL PARTS AND ASSEMBLIES' );
#28 = PRODUCT_CATEGORY( 'part', 'NONE' );
#29 = PRODUCT_RELATED_PRODUCT_CATEGORY( 'detail', ' ', ( #38 ) );
#30 = CALENDAR_DATE( 2009, 10, 10 );
#31 = LOCAL_TIME( 17, 51, 56.0000000000000, #49 );
#32 = PERSON_AND_ORGANIZATION( #50, #51 );
#33 = APPROVAL( #52, 'SOLID MODEL' );
#34 = APPROVAL_ROLE( 'APPROVED' );
#35 = SECURITY_CLASSIFICATION( '', '', #53 );
#36 = PRODUCT_DEFINITION_FORMATION_WITH_SPECIFIED_SOURCE( ' ', 'NONE', #38, .NOT_KNOWN. );
#37 = PRODUCT_DEFINITION( 'NONE', 'NONE', #36, #1 );
#38 = PRODUCT( '1', '1', 'PART-1-DESC', ( #54 ) );
#39 = PRODUCT_DEFINITION_SHAPE( 'NONE', 'NONE', #37 );
#40 = ADVANCED_BREP_SHAPE_REPRESENTATION( '1', ( #55, #56 ), #23 );
#43 = UNCERTAINTY_MEASURE_WITH_UNIT( LENGTH_MEASURE( 0.00100000000000000 ), #45, '', '' );
#45 =  ( CONVERSION_BASED_UNIT( 'MILLIMETRE', #59 )LENGTH_UNIT(  )NAMED_UNIT( #62 ) );
#46 =  ( NAMED_UNIT( #64 )PLANE_ANGLE_UNIT(  )SI_UNIT( $, .RADIAN. ) );
#47 =  ( NAMED_UNIT( #64 )SOLID_ANGLE_UNIT(  )SI_UNIT( $, .STERADIAN. ) );
#49 = COORDINATED_UNIVERSAL_TIME_OFFSET( 8, 0, .AHEAD. );
#50 = PERSON( '', 'UNSPECIFIED', $, $, $, $ );
#51 = ORGANIZATION( 'UNSPECIFIED', 'UNSPECIFIED', 'UNSPECIFIED' );
#52 = APPROVAL_STATUS( 'approved' );
#53 = SECURITY_CLASSIFICATION_LEVEL( 'unclassified' );
#54 = MECHANICAL_CONTEXT( '', #27, 'mechanical' );
#55 = MANIFOLD_SOLID_BREP( '1', #70 );
#56 = AXIS2_PLACEMENT_3D( '', #71, #72, #73 );
#59 = LENGTH_MEASURE_WITH_UNIT( LENGTH_MEASURE( 1.00000000000000 ), #74 );
#62 = DIMENSIONAL_EXPONENTS( 1.00000000000000, 0.000000000000000, 0.000000000000000, 0.000000000000000, 0.000000000000000, 0.000000000000000, 0.000000000000000 );
#64 = DIMENSIONAL_EXPONENTS( 0.000000000000000, 0.000000000000000, 0.000000000000000, 0.000000000000000, 0.000000000000000, 0.000000000000000, 0.000000000000000 );
#70 = CLOSED_SHELL( '', ( #75, #76, #77, #78, #79, #80, #81, #82 ) );
#71 = CARTESIAN_POINT( '', ( 0.000000000000000, 0.000000000000000, 0.000000000000000 ) );
#72 = DIRECTION( '', ( 0.000000000000000, 0.000000000000000, 1.00000000000000 ) );
#73 = DIRECTION( '', ( 1.00000000000000, 0.000000000000000, 0.000000000000000 ) );
#74 =  ( NAMED_UNIT( #62 )LENGTH_UNIT(  )SI_UNIT( .MILLI., .METRE. ) );
#75 = ADVANCED_FACE( '', ( #84, #85 ), #86, .T. );
#76 = ADVANCED_FACE( '', ( #87, #88 ), #89, .F. );
#77 = ADVANCED_FACE( '', ( #90, #91 ), #92, .T. );
#78 = ADVANCED_FACE( '', ( #93, #94 ), #95, .T. );
#79 = ADVANCED_FACE( '', ( #96, #97 ), #98, .T. );
#80 = ADVANCED_FACE( '', ( #99, #100 ), #101, .T. );
#81 = ADVANCED_FACE( '', ( #102, #103 ), #104, .F. );
#82 = ADVANCED_FACE( '', ( #105, #106 ), #107, .T. );
#84 = FACE_OUTER_BOUND( '', #108, .T. );
#85 = FACE_OUTER_BOUND( '', #109, .T. );
#86 = CYLINDRICAL_SURFACE( '', #110, 15.0000000000000 );
#87 = FACE_OUTER_BOUND( '', #111, .T. );
#88 = FACE_OUTER_BOUND( '', #112, .T. );
#89 = CYLINDRICAL_SURFACE( '', #113, 11.0000000000000 );
#90 = FACE_OUTER_BOUND( '', #114, .T. );
#91 = FACE_OUTER_BOUND( '', #115, .T. );
#92 = TOROIDAL_SURFACE( '', #116, 13.0000000000000, 2.00000000000000 );
#93 = FACE_OUTER_BOUND( '', #117, .T. );
#94 = FACE_OUTER_BOUND( '', #118, .T. );
#95 = TOROIDAL_SURFACE( '', #119, 14.5000000000000, 0.500000000000000 );
#96 = FACE_OUTER_BOUND( '', #120, .T. );
#97 = FACE_BOUND( '', #121, .T. );
#98 = PLANE( '', #122 );
#99 = FACE_OUTER_BOUND( '', #123, .T. );
#100 = FACE_OUTER_BOUND( '', #124, .T. );
#101 = TOROIDAL_SURFACE( '', #125, 12.5000000000000, 1.50000000000000 );
#102 = FACE_OUTER_BOUND( '', #126, .T. );
#103 = FACE_BOUND( '', #127, .T. );
#104 = PLANE( '', #128 );
#105 = FACE_OUTER_BOUND( '', #129, .T. );
#106 = FACE_BOUND( '', #130, .T. );
#107 = CONICAL_SURFACE( '', #131, 14.5591825482288, 0.174532925199433 );
#108 = EDGE_LOOP( '', ( #132 ) );
#109 = EDGE_LOOP( '', ( #133 ) );
#110 = AXIS2_PLACEMENT_3D( '', #134, #135, #136 );
#111 = EDGE_LOOP( '', ( #137 ) );
#112 = EDGE_LOOP( '', ( #138 ) );
#113 = AXIS2_PLACEMENT_3D( '', #139, #140, #141 );
#114 = EDGE_LOOP( '', ( #142 ) );
#115 = EDGE_LOOP( '', ( #143 ) );
#116 = AXIS2_PLACEMENT_3D( '', #144, #145, #146 );
#117 = EDGE_LOOP( '', ( #147 ) );
#118 = EDGE_LOOP( '', ( #148 ) );
#119 = AXIS2_PLACEMENT_3D( '', #149, #150, #151 );
#120 = EDGE_LOOP( '', ( #152 ) );
#121 = EDGE_LOOP( '', ( #153 ) );
#122 = AXIS2_PLACEMENT_3D( '', #154, #155, #156 );
#123 = EDGE_LOOP( '', ( #157 ) );
#124 = EDGE_LOOP( '', ( #158 ) );
#125 = AXIS2_PLACEMENT_3D( '', #159, #160, #161 );
#126 = EDGE_LOOP( '', ( #162 ) );
#127 = EDGE_LOOP( '', ( #163 ) );
#128 = AXIS2_PLACEMENT_3D( '', #164, #165, #166 );
#129 = EDGE_LOOP( '', ( #167 ) );
#130 = EDGE_LOOP( '', ( #168 ) );
#131 = AXIS2_PLACEMENT_3D( '', #169, #170, #171 );
#132 = ORIENTED_EDGE( '', *, *, #172, .T. );
#133 = ORIENTED_EDGE( '', *, *, #173, .T. );
#134 = CARTESIAN_POINT( '', ( 0.000000000000000, 0.000000000000000, 20.0000000000000 ) );
#135 = DIRECTION( '', ( -0.000000000000000, -0.000000000000000, 1.00000000000000 ) );
#136 = DIRECTION( '', ( -1.00000000000000, 0.000000000000000, 0.000000000000000 ) );
#137 = ORIENTED_EDGE( '', *, *, #174, .T. );
#138 = ORIENTED_EDGE( '', *, *, #175, .T. );
#139 = CARTESIAN_POINT( '', ( 0.000000000000000, 0.000000000000000, 20.0000000000000 ) );
#140 = DIRECTION( '', ( -0.000000000000000, -0.000000000000000, 1.00000000000000 ) );
#141 = DIRECTION( '', ( -1.00000000000000, 0.000000000000000, 0.000000000000000 ) );
#142 = ORIENTED_EDGE( '', *, *, #176, .F. );
#143 = ORIENTED_EDGE( '', *, *, #175, .F. );
#144 = CARTESIAN_POINT( '', ( 0.000000000000000, 0.000000000000000, 18.0000000000000 ) );
#145 = DIRECTION( '', ( 0.000000000000000, 0.000000000000000, -1.00000000000000 ) );
#146 = DIRECTION( '', ( -1.00000000000000, 0.000000000000000, 0.000000000000000 ) );
#147 = ORIENTED_EDGE( '', *, *, #177, .F. );
#148 = ORIENTED_EDGE( '', *, *, #173, .F. );
#149 = CARTESIAN_POINT( '', ( 0.000000000000000, 0.000000000000000, 19.5000000000000 ) );
#150 = DIRECTION( '', ( 0.000000000000000, 0.000000000000000, -1.00000000000000 ) );
#151 = DIRECTION( '', ( -1.00000000000000, 0.000000000000000, 0.000000000000000 ) );
#152 = ORIENTED_EDGE( '', *, *, #178, .T. );
#153 = ORIENTED_EDGE( '', *, *, #179, .T. );
#154 = CARTESIAN_POINT( '', ( 0.000000000000000, 0.000000000000000, 0.000000000000000 ) );
#155 = DIRECTION( '', ( 0.000000000000000, 0.000000000000000, -1.00000000000000 ) );
#156 = DIRECTION( '', ( -1.00000000000000, 0.000000000000000, 0.000000000000000 ) );
#157 = ORIENTED_EDGE( '', *, *, #174, .F. );
#158 = ORIENTED_EDGE( '', *, *, #179, .F. );
#159 = CARTESIAN_POINT( '', ( 0.000000000000000, 0.000000000000000, 1.50000000000000 ) );
#160 = DIRECTION( '', ( 0.000000000000000, 0.000000000000000, -1.00000000000000 ) );
#161 = DIRECTION( '', ( -1.00000000000000, 0.000000000000000, 0.000000000000000 ) );
#162 = ORIENTED_EDGE( '', *, *, #177, .T. );
#163 = ORIENTED_EDGE( '', *, *, #176, .T. );
#164 = CARTESIAN_POINT( '', ( 0.000000000000000, 0.000000000000000, 20.0000000000000 ) );
#165 = DIRECTION( '', ( 0.000000000000000, 0.000000000000000, -1.00000000000000 ) );
#166 = DIRECTION( '', ( -1.00000000000000, 0.000000000000000, 0.000000000000000 ) );
#167 = ORIENTED_EDGE( '', *, *, #172, .F. );
#168 = ORIENTED_EDGE( '', *, *, #178, .F. );
#169 = CARTESIAN_POINT( '', ( 0.000000000000000, 0.000000000000000, 0.000000000000000 ) );
#170 = DIRECTION( '', ( -0.000000000000000, -0.000000000000000, 1.00000000000000 ) );
#171 = DIRECTION( '', ( 1.00000000000000, 0.000000000000000, 0.000000000000000 ) );
#172 = EDGE_CURVE( '', #180, #180, #181, .F. );
#173 = EDGE_CURVE( '', #182, #182, #183, .T. );
#174 = EDGE_CURVE( '', #184, #184, #185, .T. );
#175 = EDGE_CURVE( '', #186, #186, #187, .F. );
#176 = EDGE_CURVE( '', #188, #188, #189, .T. );
#177 = EDGE_CURVE( '', #190, #190, #191, .F. );
#178 = EDGE_CURVE( '', #192, #192, #193, .T. );
#179 = EDGE_CURVE( '', #194, #194, #195, .F. );
#180 = VERTEX_POINT( '', #196 );
#181 = CIRCLE( '', #197, 15.0000000000000 );
#182 = VERTEX_POINT( '', #198 );
#183 = CIRCLE( '', #199, 15.0000000000000 );
#184 = VERTEX_POINT( '', #200 );
#185 = CIRCLE( '', #201, 11.0000000000000 );
#186 = VERTEX_POINT( '', #202 );
#187 = CIRCLE( '', #203, 11.0000000000000 );
#188 = VERTEX_POINT( '', #204 );
#189 = CIRCLE( '', #205, 13.0000000000000 );
#190 = VERTEX_POINT( '', #206 );
#191 = CIRCLE( '', #207, 14.5000000000000 );
#192 = VERTEX_POINT( '', #208 );
#193 = CIRCLE( '', #209, 14.5591825482288 );
#194 = VERTEX_POINT( '', #210 );
#195 = CIRCLE( '', #211, 12.5000000000000 );
#196 = CARTESIAN_POINT( '', ( -15.0000000000000, 0.000000000000000, 2.50000000000000 ) );
#197 = AXIS2_PLACEMENT_3D( '', #212, #213, #214 );
#198 = CARTESIAN_POINT( '', ( -15.0000000000000, 0.000000000000000, 19.5000000000000 ) );
#199 = AXIS2_PLACEMENT_3D( '', #215, #216, #217 );
#200 = CARTESIAN_POINT( '', ( -11.0000000000000, 0.000000000000000, 1.50000000000000 ) );
#201 = AXIS2_PLACEMENT_3D( '', #218, #219, #220 );
#202 = CARTESIAN_POINT( '', ( -11.0000000000000, 0.000000000000000, 18.0000000000000 ) );
#203 = AXIS2_PLACEMENT_3D( '', #221, #222, #223 );
#204 = CARTESIAN_POINT( '', ( -13.0000000000000, 0.000000000000000, 20.0000000000000 ) );
#205 = AXIS2_PLACEMENT_3D( '', #224, #225, #226 );
#206 = CARTESIAN_POINT( '', ( -14.5000000000000, 0.000000000000000, 20.0000000000000 ) );
#207 = AXIS2_PLACEMENT_3D( '', #227, #228, #229 );
#208 = CARTESIAN_POINT( '', ( -14.5591825482288, 0.000000000000000, 0.000000000000000 ) );
#209 = AXIS2_PLACEMENT_3D( '', #230, #231, #232 );
#210 = CARTESIAN_POINT( '', ( -12.5000000000000, 0.000000000000000, 0.000000000000000 ) );
#211 = AXIS2_PLACEMENT_3D( '', #233, #234, #235 );
#212 = CARTESIAN_POINT( '', ( 0.000000000000000, 0.000000000000000, 2.50000000000000 ) );
#213 = DIRECTION( '', ( 0.000000000000000, 0.000000000000000, -1.00000000000000 ) );
#214 = DIRECTION( '', ( -1.00000000000000, 0.000000000000000, 0.000000000000000 ) );
#215 = CARTESIAN_POINT( '', ( 0.000000000000000, 0.000000000000000, 19.5000000000000 ) );
#216 = DIRECTION( '', ( 0.000000000000000, 0.000000000000000, -1.00000000000000 ) );
#217 = DIRECTION( '', ( -1.00000000000000, 0.000000000000000, 0.000000000000000 ) );
#218 = CARTESIAN_POINT( '', ( 0.000000000000000, 0.000000000000000, 1.50000000000000 ) );
#219 = DIRECTION( '', ( 0.000000000000000, 0.000000000000000, -1.00000000000000 ) );
#220 = DIRECTION( '', ( -1.00000000000000, 0.000000000000000, 0.000000000000000 ) );
#221 = CARTESIAN_POINT( '', ( 0.000000000000000, 0.000000000000000, 18.0000000000000 ) );
#222 = DIRECTION( '', ( 0.000000000000000, 0.000000000000000, -1.00000000000000 ) );
#223 = DIRECTION( '', ( -1.00000000000000, 0.000000000000000, 0.000000000000000 ) );
#224 = CARTESIAN_POINT( '', ( 0.000000000000000, 0.000000000000000, 20.0000000000000 ) );
#225 = DIRECTION( '', ( 0.000000000000000, 0.000000000000000, -1.00000000000000 ) );
#226 = DIRECTION( '', ( -1.00000000000000, 0.000000000000000, 0.000000000000000 ) );
#227 = CARTESIAN_POINT( '', ( 0.000000000000000, 0.000000000000000, 20.0000000000000 ) );
#228 = DIRECTION( '', ( 0.000000000000000, 0.000000000000000, -1.00000000000000 ) );
#229 = DIRECTION( '', ( -1.00000000000000, 0.000000000000000, 0.000000000000000 ) );
#230 = CARTESIAN_POINT( '', ( 0.000000000000000, 0.000000000000000, 0.000000000000000 ) );
#231 = DIRECTION( '', ( 0.000000000000000, 0.000000000000000, -1.00000000000000 ) );
#232 = DIRECTION( '', ( -1.00000000000000, 0.000000000000000, 0.000000000000000 ) );
#233 = CARTESIAN_POINT( '', ( 0.000000000000000, 0.000000000000000, 0.000000000000000 ) );
#234 = DIRECTION( '', ( 0.000000000000000, 0.000000000000000, -1.00000000000000 ) );
#235 = DIRECTION( '', ( -1.00000000000000, 0.000000000000000, 0.000000000000000 ) );
ENDSEC;
END-ISO-10303-21;
