ISO-10303-21;
HEADER;
FILE_DESCRIPTION( ( 'Unknown' ), '1' );
FILE_NAME( 'S:/LEAVE 2D&3D CAD/LEAVE 3D-PAR/Metric/PT/PT48-3D/PT48-1615.stp', 'Unknown', ( 'Unknown' ), ( 'Unknown' ), 'XStep 1.0', 'Unknown', '  ' );
FILE_SCHEMA( ( 'CONFIG_CONTROL_DESIGN' ) );
ENDSEC;
DATA;
#1 = DESIGN_CONTEXT( '', #27, 'design' );
#2 = APPLICATION_PROTOCOL_DEFINITION( 'INTERNATIONAL STANDARD', 'config_control_design', 1994, #27 );
#3 = PRODUCT_CATEGORY_RELATIONSHIP( 'NONE', 'NONE', #28, #29 );
#4 = DATE_AND_TIME( #30, #31 );
#5 = DATE_TIME_ROLE( 'creation_date' );
#6 = DATE_TIME_ROLE( 'classification_date' );
#7 = PERSON_AND_ORGANIZATION_ROLE( 'creator' );
#8 = PERSON_AND_ORGANIZATION_ROLE( 'design_supplier' );
#9 = PERSON_AND_ORGANIZATION_ROLE( 'classification_officer' );
#10 = PERSON_AND_ORGANIZATION_ROLE( 'design_owner' );
#11 = APPROVAL_PERSON_ORGANIZATION( #32, #33, #34 );
#12 = APPROVAL_DATE_TIME( #4, #33 );
#13 = CC_DESIGN_APPROVAL( #33, ( #35, #36, #37 ) );
#14 = CC_DESIGN_DATE_AND_TIME_ASSIGNMENT( #4, #5, ( #37 ) );
#15 = CC_DESIGN_DATE_AND_TIME_ASSIGNMENT( #4, #6, ( #35 ) );
#16 = CC_DESIGN_PERSON_AND_ORGANIZATION_ASSIGNMENT( #32, #10, ( #38 ) );
#17 = CC_DESIGN_PERSON_AND_ORGANIZATION_ASSIGNMENT( #32, #7, ( #37 ) );
#18 = CC_DESIGN_PERSON_AND_ORGANIZATION_ASSIGNMENT( #32, #7, ( #36 ) );
#19 = CC_DESIGN_PERSON_AND_ORGANIZATION_ASSIGNMENT( #32, #8, ( #36 ) );
#20 = CC_DESIGN_SECURITY_CLASSIFICATION( #35, ( #36 ) );
#21 = CC_DESIGN_PERSON_AND_ORGANIZATION_ASSIGNMENT( #32, #9, ( #35 ) );
#22 = SHAPE_DEFINITION_REPRESENTATION( #39, #40 );
#23 =  ( GEOMETRIC_REPRESENTATION_CONTEXT( 3 )GLOBAL_UNCERTAINTY_ASSIGNED_CONTEXT( ( #43 ) )GLOBAL_UNIT_ASSIGNED_CONTEXT( ( #45, #46, #47 ) )REPRESENTATION_CONTEXT( 'NONE', 'WORKSPACE' ) );
#27 = APPLICATION_CONTEXT( 'CONFIGURATION CONTROLLED 3D DESIGNS OF MECHANICAL PARTS AND ASSEMBLIES' );
#28 = PRODUCT_CATEGORY( 'part', 'NONE' );
#29 = PRODUCT_RELATED_PRODUCT_CATEGORY( 'detail', ' ', ( #38 ) );
#30 = CALENDAR_DATE( 2009, 11, 10 );
#31 = LOCAL_TIME( 9, 23, 20.0000000000000, #49 );
#32 = PERSON_AND_ORGANIZATION( #50, #51 );
#33 = APPROVAL( #52, 'SOLID MODEL' );
#34 = APPROVAL_ROLE( 'APPROVED' );
#35 = SECURITY_CLASSIFICATION( '', '', #53 );
#36 = PRODUCT_DEFINITION_FORMATION_WITH_SPECIFIED_SOURCE( ' ', 'NONE', #38, .NOT_KNOWN. );
#37 = PRODUCT_DEFINITION( 'NONE', 'NONE', #36, #1 );
#38 = PRODUCT( '1', '1', 'PART-1-DESC', ( #54 ) );
#39 = PRODUCT_DEFINITION_SHAPE( 'NONE', 'NONE', #37 );
#40 = ADVANCED_BREP_SHAPE_REPRESENTATION( '1', ( #55, #56 ), #23 );
#43 = UNCERTAINTY_MEASURE_WITH_UNIT( LENGTH_MEASURE( 0.00100000000000000 ), #45, '', '' );
#45 =  ( CONVERSION_BASED_UNIT( 'MILLIMETRE', #59 )LENGTH_UNIT(  )NAMED_UNIT( #62 ) );
#46 =  ( NAMED_UNIT( #64 )PLANE_ANGLE_UNIT(  )SI_UNIT( $, .RADIAN. ) );
#47 =  ( NAMED_UNIT( #64 )SOLID_ANGLE_UNIT(  )SI_UNIT( $, .STERADIAN. ) );
#49 = COORDINATED_UNIVERSAL_TIME_OFFSET( 8, 0, .AHEAD. );
#50 = PERSON( '', 'UNSPECIFIED', $, $, $, $ );
#51 = ORGANIZATION( 'UNSPECIFIED', 'UNSPECIFIED', 'UNSPECIFIED' );
#52 = APPROVAL_STATUS( 'approved' );
#53 = SECURITY_CLASSIFICATION_LEVEL( 'unclassified' );
#54 = MECHANICAL_CONTEXT( '', #27, 'mechanical' );
#55 = MANIFOLD_SOLID_BREP( '1', #70 );
#56 = AXIS2_PLACEMENT_3D( '', #71, #72, #73 );
#59 = LENGTH_MEASURE_WITH_UNIT( LENGTH_MEASURE( 1.00000000000000 ), #74 );
#62 = DIMENSIONAL_EXPONENTS( 1.00000000000000, 0.000000000000000, 0.000000000000000, 0.000000000000000, 0.000000000000000, 0.000000000000000, 0.000000000000000 );
#64 = DIMENSIONAL_EXPONENTS( 0.000000000000000, 0.000000000000000, 0.000000000000000, 0.000000000000000, 0.000000000000000, 0.000000000000000, 0.000000000000000 );
#70 = CLOSED_SHELL( '', ( #75, #76, #77, #78, #79, #80, #81, #82, #83, #84 ) );
#71 = CARTESIAN_POINT( '', ( 0.000000000000000, 0.000000000000000, 0.000000000000000 ) );
#72 = DIRECTION( '', ( 0.000000000000000, 0.000000000000000, 1.00000000000000 ) );
#73 = DIRECTION( '', ( 1.00000000000000, 0.000000000000000, 0.000000000000000 ) );
#74 =  ( NAMED_UNIT( #62 )LENGTH_UNIT(  )SI_UNIT( .MILLI., .METRE. ) );
#75 = ADVANCED_FACE( '', ( #86, #87 ), #88, .F. );
#76 = ADVANCED_FACE( '', ( #89, #90 ), #91, .T. );
#77 = ADVANCED_FACE( '', ( #92, #93 ), #94, .T. );
#78 = ADVANCED_FACE( '', ( #95, #96 ), #97, .T. );
#79 = ADVANCED_FACE( '', ( #98, #99 ), #100, .T. );
#80 = ADVANCED_FACE( '', ( #101, #102 ), #103, .T. );
#81 = ADVANCED_FACE( '', ( #104, #105 ), #106, .T. );
#82 = ADVANCED_FACE( '', ( #107, #108 ), #109, .T. );
#83 = ADVANCED_FACE( '', ( #110 ), #111, .T. );
#84 = ADVANCED_FACE( '', ( #112 ), #113, .T. );
#86 = FACE_OUTER_BOUND( '', #114, .T. );
#87 = FACE_BOUND( '', #115, .T. );
#88 = PLANE( '', #116 );
#89 = FACE_OUTER_BOUND( '', #117, .T. );
#90 = FACE_OUTER_BOUND( '', #118, .T. );
#91 = TOROIDAL_SURFACE( '', #119, 12.5000000000000, 1.00000000000000 );
#92 = FACE_OUTER_BOUND( '', #120, .T. );
#93 = FACE_OUTER_BOUND( '', #121, .T. );
#94 = CYLINDRICAL_SURFACE( '', #122, 8.00000000000000 );
#95 = FACE_OUTER_BOUND( '', #123, .T. );
#96 = FACE_BOUND( '', #124, .T. );
#97 = PLANE( '', #125 );
#98 = FACE_OUTER_BOUND( '', #126, .T. );
#99 = FACE_OUTER_BOUND( '', #127, .T. );
#100 = CYLINDRICAL_SURFACE( '', #128, 13.5000000000000 );
#101 = FACE_BOUND( '', #129, .T. );
#102 = FACE_OUTER_BOUND( '', #130, .T. );
#103 = CONICAL_SURFACE( '', #131, 12.5000000000000, 0.610865238198017 );
#104 = FACE_BOUND( '', #132, .T. );
#105 = FACE_OUTER_BOUND( '', #133, .T. );
#106 = CONICAL_SURFACE( '', #134, 12.6720729309053, 1.09083078249645 );
#107 = FACE_OUTER_BOUND( '', #135, .T. );
#108 = FACE_BOUND( '', #136, .T. );
#109 = CONICAL_SURFACE( '', #137, 7.00000000000000, 0.785398163397448 );
#110 = FACE_OUTER_BOUND( '', #138, .T. );
#111 = PLANE( '', #139 );
#112 = FACE_OUTER_BOUND( '', #140, .T. );
#113 = SPHERICAL_SURFACE( '', #141, 7.93750000000000 );
#114 = EDGE_LOOP( '', ( #142 ) );
#115 = EDGE_LOOP( '', ( #143 ) );
#116 = AXIS2_PLACEMENT_3D( '', #144, #145, #146 );
#117 = EDGE_LOOP( '', ( #147 ) );
#118 = EDGE_LOOP( '', ( #148 ) );
#119 = AXIS2_PLACEMENT_3D( '', #149, #150, #151 );
#120 = EDGE_LOOP( '', ( #152 ) );
#121 = EDGE_LOOP( '', ( #153 ) );
#122 = AXIS2_PLACEMENT_3D( '', #154, #155, #156 );
#123 = EDGE_LOOP( '', ( #157 ) );
#124 = EDGE_LOOP( '', ( #158 ) );
#125 = AXIS2_PLACEMENT_3D( '', #159, #160, #161 );
#126 = EDGE_LOOP( '', ( #162 ) );
#127 = EDGE_LOOP( '', ( #163 ) );
#128 = AXIS2_PLACEMENT_3D( '', #164, #165, #166 );
#129 = EDGE_LOOP( '', ( #167 ) );
#130 = EDGE_LOOP( '', ( #168 ) );
#131 = AXIS2_PLACEMENT_3D( '', #169, #170, #171 );
#132 = EDGE_LOOP( '', ( #172 ) );
#133 = EDGE_LOOP( '', ( #173 ) );
#134 = AXIS2_PLACEMENT_3D( '', #174, #175, #176 );
#135 = EDGE_LOOP( '', ( #177 ) );
#136 = EDGE_LOOP( '', ( #178 ) );
#137 = AXIS2_PLACEMENT_3D( '', #179, #180, #181 );
#138 = EDGE_LOOP( '', ( #182 ) );
#139 = AXIS2_PLACEMENT_3D( '', #183, #184, #185 );
#140 = EDGE_LOOP( '', ( #186 ) );
#141 = AXIS2_PLACEMENT_3D( '', #187, #188, #189 );
#142 = ORIENTED_EDGE( '', *, *, #190, .T. );
#143 = ORIENTED_EDGE( '', *, *, #191, .F. );
#144 = CARTESIAN_POINT( '', ( 0.000000000000000, 0.000000000000000, 16.0000000000000 ) );
#145 = DIRECTION( '', ( 0.000000000000000, 0.000000000000000, -1.00000000000000 ) );
#146 = DIRECTION( '', ( -1.00000000000000, 0.000000000000000, 0.000000000000000 ) );
#147 = ORIENTED_EDGE( '', *, *, #192, .F. );
#148 = ORIENTED_EDGE( '', *, *, #193, .F. );
#149 = CARTESIAN_POINT( '', ( 0.000000000000000, 0.000000000000000, 1.00000000000000 ) );
#150 = DIRECTION( '', ( 0.000000000000000, 0.000000000000000, -1.00000000000000 ) );
#151 = DIRECTION( '', ( -1.00000000000000, 0.000000000000000, 0.000000000000000 ) );
#152 = ORIENTED_EDGE( '', *, *, #194, .T. );
#153 = ORIENTED_EDGE( '', *, *, #195, .T. );
#154 = CARTESIAN_POINT( '', ( 0.000000000000000, 0.000000000000000, -20.0000000000000 ) );
#155 = DIRECTION( '', ( -0.000000000000000, -0.000000000000000, -1.00000000000000 ) );
#156 = DIRECTION( '', ( 1.00000000000000, 0.000000000000000, 0.000000000000000 ) );
#157 = ORIENTED_EDGE( '', *, *, #193, .T. );
#158 = ORIENTED_EDGE( '', *, *, #195, .F. );
#159 = CARTESIAN_POINT( '', ( 0.000000000000000, 0.000000000000000, 0.000000000000000 ) );
#160 = DIRECTION( '', ( 0.000000000000000, 0.000000000000000, -1.00000000000000 ) );
#161 = DIRECTION( '', ( -1.00000000000000, 0.000000000000000, 0.000000000000000 ) );
#162 = ORIENTED_EDGE( '', *, *, #192, .T. );
#163 = ORIENTED_EDGE( '', *, *, #196, .T. );
#164 = CARTESIAN_POINT( '', ( 0.000000000000000, 0.000000000000000, 16.0000000000000 ) );
#165 = DIRECTION( '', ( -0.000000000000000, -0.000000000000000, 1.00000000000000 ) );
#166 = DIRECTION( '', ( -1.00000000000000, 0.000000000000000, 0.000000000000000 ) );
#167 = ORIENTED_EDGE( '', *, *, #197, .T. );
#168 = ORIENTED_EDGE( '', *, *, #196, .F. );
#169 = CARTESIAN_POINT( '', ( 0.000000000000000, 0.000000000000000, 16.0000000000000 ) );
#170 = DIRECTION( '', ( -0.000000000000000, 0.000000000000000, -1.00000000000000 ) );
#171 = DIRECTION( '', ( -1.00000000000000, 0.000000000000000, 0.000000000000000 ) );
#172 = ORIENTED_EDGE( '', *, *, #190, .F. );
#173 = ORIENTED_EDGE( '', *, *, #197, .F. );
#174 = CARTESIAN_POINT( '', ( 0.000000000000000, 0.000000000000000, 15.7542543867133 ) );
#175 = DIRECTION( '', ( -0.000000000000000, 0.000000000000000, -1.00000000000000 ) );
#176 = DIRECTION( '', ( -1.00000000000000, 0.000000000000000, 0.000000000000000 ) );
#177 = ORIENTED_EDGE( '', *, *, #194, .F. );
#178 = ORIENTED_EDGE( '', *, *, #198, .F. );
#179 = CARTESIAN_POINT( '', ( 0.000000000000000, 0.000000000000000, -20.0000000000000 ) );
#180 = DIRECTION( '', ( -0.000000000000000, -0.000000000000000, 1.00000000000000 ) );
#181 = DIRECTION( '', ( 1.00000000000000, 0.000000000000000, 0.000000000000000 ) );
#182 = ORIENTED_EDGE( '', *, *, #198, .T. );
#183 = CARTESIAN_POINT( '', ( 0.000000000000000, 0.000000000000000, -20.0000000000000 ) );
#184 = DIRECTION( '', ( 0.000000000000000, 0.000000000000000, -1.00000000000000 ) );
#185 = DIRECTION( '', ( -1.00000000000000, 0.000000000000000, 0.000000000000000 ) );
#186 = ORIENTED_EDGE( '', *, *, #191, .T. );
#187 = CARTESIAN_POINT( '', ( 5.49208619858214E-016, 0.000000000000000, 11.3625000000000 ) );
#188 = DIRECTION( '', ( 0.000000000000000, 0.000000000000000, -1.00000000000000 ) );
#189 = DIRECTION( '', ( 1.00000000000000, 0.000000000000000, 0.000000000000000 ) );
#190 = EDGE_CURVE( '', #199, #199, #200, .F. );
#191 = EDGE_CURVE( '', #201, #201, #202, .F. );
#192 = EDGE_CURVE( '', #203, #203, #204, .F. );
#193 = EDGE_CURVE( '', #205, #205, #206, .T. );
#194 = EDGE_CURVE( '', #207, #207, #208, .F. );
#195 = EDGE_CURVE( '', #209, #209, #210, .T. );
#196 = EDGE_CURVE( '', #211, #211, #212, .T. );
#197 = EDGE_CURVE( '', #213, #213, #214, .F. );
#198 = EDGE_CURVE( '', #215, #215, #216, .T. );
#199 = VERTEX_POINT( '', #217 );
#200 = CIRCLE( '', #218, 12.2000000000000 );
#201 = VERTEX_POINT( '', #219 );
#202 = CIRCLE( '', #220, 6.44185532280880 );
#203 = VERTEX_POINT( '', #221 );
#204 = CIRCLE( '', #222, 13.5000000000000 );
#205 = VERTEX_POINT( '', #223 );
#206 = CIRCLE( '', #224, 12.5000000000000 );
#207 = VERTEX_POINT( '', #225 );
#208 = CIRCLE( '', #226, 8.00000000000000 );
#209 = VERTEX_POINT( '', #227 );
#210 = CIRCLE( '', #228, 8.00000000000000 );
#211 = VERTEX_POINT( '', #229 );
#212 = CIRCLE( '', #230, 13.5000000000000 );
#213 = VERTEX_POINT( '', #231 );
#214 = CIRCLE( '', #232, 12.6720729309053 );
#215 = VERTEX_POINT( '', #233 );
#216 = CIRCLE( '', #234, 7.00000000000000 );
#217 = CARTESIAN_POINT( '', ( -12.2000000000000, 0.000000000000000, 16.0000000000000 ) );
#218 = AXIS2_PLACEMENT_3D( '', #235, #236, #237 );
#219 = CARTESIAN_POINT( '', ( -6.44185532280880, 0.000000000000000, 16.0000000000000 ) );
#220 = AXIS2_PLACEMENT_3D( '', #238, #239, #240 );
#221 = CARTESIAN_POINT( '', ( -13.5000000000000, 0.000000000000000, 1.00000000000000 ) );
#222 = AXIS2_PLACEMENT_3D( '', #241, #242, #243 );
#223 = CARTESIAN_POINT( '', ( -12.5000000000000, 0.000000000000000, 0.000000000000000 ) );
#224 = AXIS2_PLACEMENT_3D( '', #244, #245, #246 );
#225 = CARTESIAN_POINT( '', ( -8.00000000000000, 0.000000000000000, -19.0000000000000 ) );
#226 = AXIS2_PLACEMENT_3D( '', #247, #248, #249 );
#227 = CARTESIAN_POINT( '', ( 8.00000000000000, 0.000000000000000, 0.000000000000000 ) );
#228 = AXIS2_PLACEMENT_3D( '', #250, #251, #252 );
#229 = CARTESIAN_POINT( '', ( -13.5000000000000, 0.000000000000000, 14.5718519932579 ) );
#230 = AXIS2_PLACEMENT_3D( '', #253, #254, #255 );
#231 = CARTESIAN_POINT( '', ( 12.6720729309053, 0.000000000000000, 15.7542543867133 ) );
#232 = AXIS2_PLACEMENT_3D( '', #256, #257, #258 );
#233 = CARTESIAN_POINT( '', ( -7.00000000000000, 0.000000000000000, -20.0000000000000 ) );
#234 = AXIS2_PLACEMENT_3D( '', #259, #260, #261 );
#235 = CARTESIAN_POINT( '', ( 0.000000000000000, 0.000000000000000, 16.0000000000000 ) );
#236 = DIRECTION( '', ( 0.000000000000000, 0.000000000000000, -1.00000000000000 ) );
#237 = DIRECTION( '', ( -1.00000000000000, 0.000000000000000, 0.000000000000000 ) );
#238 = CARTESIAN_POINT( '', ( 5.49208619858214E-016, 0.000000000000000, 16.0000000000000 ) );
#239 = DIRECTION( '', ( 0.000000000000000, 0.000000000000000, -1.00000000000000 ) );
#240 = DIRECTION( '', ( -1.00000000000000, 0.000000000000000, 0.000000000000000 ) );
#241 = CARTESIAN_POINT( '', ( 0.000000000000000, 0.000000000000000, 1.00000000000000 ) );
#242 = DIRECTION( '', ( 0.000000000000000, 0.000000000000000, -1.00000000000000 ) );
#243 = DIRECTION( '', ( -1.00000000000000, 0.000000000000000, 0.000000000000000 ) );
#244 = CARTESIAN_POINT( '', ( 0.000000000000000, 0.000000000000000, 0.000000000000000 ) );
#245 = DIRECTION( '', ( 0.000000000000000, 0.000000000000000, -1.00000000000000 ) );
#246 = DIRECTION( '', ( -1.00000000000000, 0.000000000000000, 0.000000000000000 ) );
#247 = CARTESIAN_POINT( '', ( 0.000000000000000, 0.000000000000000, -19.0000000000000 ) );
#248 = DIRECTION( '', ( 0.000000000000000, 0.000000000000000, -1.00000000000000 ) );
#249 = DIRECTION( '', ( -1.00000000000000, 0.000000000000000, 0.000000000000000 ) );
#250 = CARTESIAN_POINT( '', ( 0.000000000000000, 0.000000000000000, 0.000000000000000 ) );
#251 = DIRECTION( '', ( 0.000000000000000, 0.000000000000000, -1.00000000000000 ) );
#252 = DIRECTION( '', ( 1.00000000000000, 0.000000000000000, 0.000000000000000 ) );
#253 = CARTESIAN_POINT( '', ( 0.000000000000000, 0.000000000000000, 14.5718519932579 ) );
#254 = DIRECTION( '', ( 0.000000000000000, 0.000000000000000, -1.00000000000000 ) );
#255 = DIRECTION( '', ( -1.00000000000000, 0.000000000000000, 0.000000000000000 ) );
#256 = CARTESIAN_POINT( '', ( 0.000000000000000, 0.000000000000000, 15.7542543867133 ) );
#257 = DIRECTION( '', ( 0.000000000000000, 0.000000000000000, 1.00000000000000 ) );
#258 = DIRECTION( '', ( 1.00000000000000, 0.000000000000000, 0.000000000000000 ) );
#259 = CARTESIAN_POINT( '', ( 0.000000000000000, 0.000000000000000, -20.0000000000000 ) );
#260 = DIRECTION( '', ( 0.000000000000000, 0.000000000000000, -1.00000000000000 ) );
#261 = DIRECTION( '', ( -1.00000000000000, 0.000000000000000, 0.000000000000000 ) );
ENDSEC;
END-ISO-10303-21;
