ISO-10303-21;
HEADER;
FILE_DESCRIPTION( ( 'Unknown' ), '1' );
FILE_NAME( 'S:/LEAVE 2D&3D CAD/LEAVE 3D-PAR/Metric/PT/PT48-3D/PT48-2018.stp', 'Unknown', ( 'Unknown' ), ( 'Unknown' ), 'XStep 1.0', 'Unknown', '  ' );
FILE_SCHEMA( ( 'CONFIG_CONTROL_DESIGN' ) );
ENDSEC;
DATA;
#1 = DESIGN_CONTEXT( '', #27, 'design' );
#2 = APPLICATION_PROTOCOL_DEFINITION( 'INTERNATIONAL STANDARD', 'config_control_design', 1994, #27 );
#3 = PRODUCT_CATEGORY_RELATIONSHIP( 'NONE', 'NONE', #28, #29 );
#4 = DATE_AND_TIME( #30, #31 );
#5 = DATE_TIME_ROLE( 'creation_date' );
#6 = DATE_TIME_ROLE( 'classification_date' );
#7 = PERSON_AND_ORGANIZATION_ROLE( 'creator' );
#8 = PERSON_AND_ORGANIZATION_ROLE( 'design_supplier' );
#9 = PERSON_AND_ORGANIZATION_ROLE( 'classification_officer' );
#10 = PERSON_AND_ORGANIZATION_ROLE( 'design_owner' );
#11 = APPROVAL_PERSON_ORGANIZATION( #32, #33, #34 );
#12 = APPROVAL_DATE_TIME( #4, #33 );
#13 = CC_DESIGN_APPROVAL( #33, ( #35, #36, #37 ) );
#14 = CC_DESIGN_DATE_AND_TIME_ASSIGNMENT( #4, #5, ( #37 ) );
#15 = CC_DESIGN_DATE_AND_TIME_ASSIGNMENT( #4, #6, ( #35 ) );
#16 = CC_DESIGN_PERSON_AND_ORGANIZATION_ASSIGNMENT( #32, #10, ( #38 ) );
#17 = CC_DESIGN_PERSON_AND_ORGANIZATION_ASSIGNMENT( #32, #7, ( #37 ) );
#18 = CC_DESIGN_PERSON_AND_ORGANIZATION_ASSIGNMENT( #32, #7, ( #36 ) );
#19 = CC_DESIGN_PERSON_AND_ORGANIZATION_ASSIGNMENT( #32, #8, ( #36 ) );
#20 = CC_DESIGN_SECURITY_CLASSIFICATION( #35, ( #36 ) );
#21 = CC_DESIGN_PERSON_AND_ORGANIZATION_ASSIGNMENT( #32, #9, ( #35 ) );
#22 = SHAPE_DEFINITION_REPRESENTATION( #39, #40 );
#23 =  ( GEOMETRIC_REPRESENTATION_CONTEXT( 3 )GLOBAL_UNCERTAINTY_ASSIGNED_CONTEXT( ( #43 ) )GLOBAL_UNIT_ASSIGNED_CONTEXT( ( #45, #46, #47 ) )REPRESENTATION_CONTEXT( 'NONE', 'WORKSPACE' ) );
#27 = APPLICATION_CONTEXT( 'CONFIGURATION CONTROLLED 3D DESIGNS OF MECHANICAL PARTS AND ASSEMBLIES' );
#28 = PRODUCT_CATEGORY( 'part', 'NONE' );
#29 = PRODUCT_RELATED_PRODUCT_CATEGORY( 'detail', ' ', ( #38 ) );
#30 = CALENDAR_DATE( 2009, 11, 10 );
#31 = LOCAL_TIME( 9, 23, 29.0000000000000, #49 );
#32 = PERSON_AND_ORGANIZATION( #50, #51 );
#33 = APPROVAL( #52, 'SOLID MODEL' );
#34 = APPROVAL_ROLE( 'APPROVED' );
#35 = SECURITY_CLASSIFICATION( '', '', #53 );
#36 = PRODUCT_DEFINITION_FORMATION_WITH_SPECIFIED_SOURCE( ' ', 'NONE', #38, .NOT_KNOWN. );
#37 = PRODUCT_DEFINITION( 'NONE', 'NONE', #36, #1 );
#38 = PRODUCT( '1', '1', 'PART-1-DESC', ( #54 ) );
#39 = PRODUCT_DEFINITION_SHAPE( 'NONE', 'NONE', #37 );
#40 = ADVANCED_BREP_SHAPE_REPRESENTATION( '1', ( #55, #56 ), #23 );
#43 = UNCERTAINTY_MEASURE_WITH_UNIT( LENGTH_MEASURE( 0.00100000000000000 ), #45, '', '' );
#45 =  ( CONVERSION_BASED_UNIT( 'MILLIMETRE', #59 )LENGTH_UNIT(  )NAMED_UNIT( #62 ) );
#46 =  ( NAMED_UNIT( #64 )PLANE_ANGLE_UNIT(  )SI_UNIT( $, .RADIAN. ) );
#47 =  ( NAMED_UNIT( #64 )SOLID_ANGLE_UNIT(  )SI_UNIT( $, .STERADIAN. ) );
#49 = COORDINATED_UNIVERSAL_TIME_OFFSET( 8, 0, .AHEAD. );
#50 = PERSON( '', 'UNSPECIFIED', $, $, $, $ );
#51 = ORGANIZATION( 'UNSPECIFIED', 'UNSPECIFIED', 'UNSPECIFIED' );
#52 = APPROVAL_STATUS( 'approved' );
#53 = SECURITY_CLASSIFICATION_LEVEL( 'unclassified' );
#54 = MECHANICAL_CONTEXT( '', #27, 'mechanical' );
#55 = MANIFOLD_SOLID_BREP( '1', #70 );
#56 = AXIS2_PLACEMENT_3D( '', #71, #72, #73 );
#59 = LENGTH_MEASURE_WITH_UNIT( LENGTH_MEASURE( 1.00000000000000 ), #74 );
#62 = DIMENSIONAL_EXPONENTS( 1.00000000000000, 0.000000000000000, 0.000000000000000, 0.000000000000000, 0.000000000000000, 0.000000000000000, 0.000000000000000 );
#64 = DIMENSIONAL_EXPONENTS( 0.000000000000000, 0.000000000000000, 0.000000000000000, 0.000000000000000, 0.000000000000000, 0.000000000000000, 0.000000000000000 );
#70 = CLOSED_SHELL( '', ( #75, #76, #77, #78, #79, #80, #81, #82, #83 ) );
#71 = CARTESIAN_POINT( '', ( 0.000000000000000, 0.000000000000000, 0.000000000000000 ) );
#72 = DIRECTION( '', ( 0.000000000000000, 0.000000000000000, 1.00000000000000 ) );
#73 = DIRECTION( '', ( 1.00000000000000, 0.000000000000000, 0.000000000000000 ) );
#74 =  ( NAMED_UNIT( #62 )LENGTH_UNIT(  )SI_UNIT( .MILLI., .METRE. ) );
#75 = ADVANCED_FACE( '', ( #85, #86 ), #87, .F. );
#76 = ADVANCED_FACE( '', ( #88, #89 ), #90, .T. );
#77 = ADVANCED_FACE( '', ( #91, #92 ), #93, .T. );
#78 = ADVANCED_FACE( '', ( #94, #95 ), #96, .T. );
#79 = ADVANCED_FACE( '', ( #97, #98 ), #99, .T. );
#80 = ADVANCED_FACE( '', ( #100, #101 ), #102, .T. );
#81 = ADVANCED_FACE( '', ( #103, #104 ), #105, .T. );
#82 = ADVANCED_FACE( '', ( #106 ), #107, .T. );
#83 = ADVANCED_FACE( '', ( #108 ), #109, .T. );
#85 = FACE_OUTER_BOUND( '', #110, .T. );
#86 = FACE_BOUND( '', #111, .T. );
#87 = PLANE( '', #112 );
#88 = FACE_OUTER_BOUND( '', #113, .T. );
#89 = FACE_BOUND( '', #114, .T. );
#90 = CONICAL_SURFACE( '', #115, 9.00000000000000, 0.785398163397448 );
#91 = FACE_OUTER_BOUND( '', #116, .T. );
#92 = FACE_OUTER_BOUND( '', #117, .T. );
#93 = CYLINDRICAL_SURFACE( '', #118, 10.0000000000000 );
#94 = FACE_OUTER_BOUND( '', #119, .T. );
#95 = FACE_BOUND( '', #120, .T. );
#96 = PLANE( '', #121 );
#97 = FACE_OUTER_BOUND( '', #122, .T. );
#98 = FACE_OUTER_BOUND( '', #123, .T. );
#99 = CYLINDRICAL_SURFACE( '', #124, 16.5000000000000 );
#100 = FACE_BOUND( '', #125, .T. );
#101 = FACE_OUTER_BOUND( '', #126, .T. );
#102 = CONICAL_SURFACE( '', #127, 15.4000000000000, 0.610865238198015 );
#103 = FACE_BOUND( '', #128, .T. );
#104 = FACE_OUTER_BOUND( '', #129, .T. );
#105 = CONICAL_SURFACE( '', #130, 15.5720729309053, 1.09083078249645 );
#106 = FACE_OUTER_BOUND( '', #131, .T. );
#107 = PLANE( '', #132 );
#108 = FACE_OUTER_BOUND( '', #133, .T. );
#109 = SPHERICAL_SURFACE( '', #134, 9.52500000000000 );
#110 = EDGE_LOOP( '', ( #135 ) );
#111 = EDGE_LOOP( '', ( #136 ) );
#112 = AXIS2_PLACEMENT_3D( '', #137, #138, #139 );
#113 = EDGE_LOOP( '', ( #140 ) );
#114 = EDGE_LOOP( '', ( #141 ) );
#115 = AXIS2_PLACEMENT_3D( '', #142, #143, #144 );
#116 = EDGE_LOOP( '', ( #145 ) );
#117 = EDGE_LOOP( '', ( #146 ) );
#118 = AXIS2_PLACEMENT_3D( '', #147, #148, #149 );
#119 = EDGE_LOOP( '', ( #150 ) );
#120 = EDGE_LOOP( '', ( #151 ) );
#121 = AXIS2_PLACEMENT_3D( '', #152, #153, #154 );
#122 = EDGE_LOOP( '', ( #155 ) );
#123 = EDGE_LOOP( '', ( #156 ) );
#124 = AXIS2_PLACEMENT_3D( '', #157, #158, #159 );
#125 = EDGE_LOOP( '', ( #160 ) );
#126 = EDGE_LOOP( '', ( #161 ) );
#127 = AXIS2_PLACEMENT_3D( '', #162, #163, #164 );
#128 = EDGE_LOOP( '', ( #165 ) );
#129 = EDGE_LOOP( '', ( #166 ) );
#130 = AXIS2_PLACEMENT_3D( '', #167, #168, #169 );
#131 = EDGE_LOOP( '', ( #170 ) );
#132 = AXIS2_PLACEMENT_3D( '', #171, #172, #173 );
#133 = EDGE_LOOP( '', ( #174 ) );
#134 = AXIS2_PLACEMENT_3D( '', #175, #176, #177 );
#135 = ORIENTED_EDGE( '', *, *, #178, .T. );
#136 = ORIENTED_EDGE( '', *, *, #179, .F. );
#137 = CARTESIAN_POINT( '', ( 3.30643715532042E-015, 0.000000000000000, 19.0000000000000 ) );
#138 = DIRECTION( '', ( 0.000000000000000, 0.000000000000000, -1.00000000000000 ) );
#139 = DIRECTION( '', ( -1.00000000000000, 0.000000000000000, 0.000000000000000 ) );
#140 = ORIENTED_EDGE( '', *, *, #180, .F. );
#141 = ORIENTED_EDGE( '', *, *, #181, .F. );
#142 = CARTESIAN_POINT( '', ( 0.000000000000000, 0.000000000000000, -25.0000000000000 ) );
#143 = DIRECTION( '', ( -0.000000000000000, -0.000000000000000, 1.00000000000000 ) );
#144 = DIRECTION( '', ( 1.00000000000000, 0.000000000000000, 0.000000000000000 ) );
#145 = ORIENTED_EDGE( '', *, *, #180, .T. );
#146 = ORIENTED_EDGE( '', *, *, #182, .T. );
#147 = CARTESIAN_POINT( '', ( 0.000000000000000, 0.000000000000000, -25.0000000000000 ) );
#148 = DIRECTION( '', ( -0.000000000000000, -0.000000000000000, -1.00000000000000 ) );
#149 = DIRECTION( '', ( 1.00000000000000, 0.000000000000000, 0.000000000000000 ) );
#150 = ORIENTED_EDGE( '', *, *, #183, .T. );
#151 = ORIENTED_EDGE( '', *, *, #182, .F. );
#152 = CARTESIAN_POINT( '', ( 3.30643715532042E-015, 0.000000000000000, 0.000000000000000 ) );
#153 = DIRECTION( '', ( 0.000000000000000, 0.000000000000000, -1.00000000000000 ) );
#154 = DIRECTION( '', ( -1.00000000000000, 0.000000000000000, 0.000000000000000 ) );
#155 = ORIENTED_EDGE( '', *, *, #184, .T. );
#156 = ORIENTED_EDGE( '', *, *, #183, .F. );
#157 = CARTESIAN_POINT( '', ( 3.30643715532042E-015, 0.000000000000000, 19.0000000000000 ) );
#158 = DIRECTION( '', ( -0.000000000000000, -0.000000000000000, 1.00000000000000 ) );
#159 = DIRECTION( '', ( -1.00000000000000, 0.000000000000000, 0.000000000000000 ) );
#160 = ORIENTED_EDGE( '', *, *, #185, .T. );
#161 = ORIENTED_EDGE( '', *, *, #184, .F. );
#162 = CARTESIAN_POINT( '', ( 0.000000000000000, 0.000000000000000, 19.0000000000000 ) );
#163 = DIRECTION( '', ( -0.000000000000000, 0.000000000000000, -1.00000000000000 ) );
#164 = DIRECTION( '', ( -1.00000000000000, 0.000000000000000, 0.000000000000000 ) );
#165 = ORIENTED_EDGE( '', *, *, #178, .F. );
#166 = ORIENTED_EDGE( '', *, *, #185, .F. );
#167 = CARTESIAN_POINT( '', ( 0.000000000000000, 0.000000000000000, 18.7542543867133 ) );
#168 = DIRECTION( '', ( -0.000000000000000, 0.000000000000000, -1.00000000000000 ) );
#169 = DIRECTION( '', ( -1.00000000000000, 0.000000000000000, 0.000000000000000 ) );
#170 = ORIENTED_EDGE( '', *, *, #181, .T. );
#171 = CARTESIAN_POINT( '', ( 0.000000000000000, 0.000000000000000, -25.0000000000000 ) );
#172 = DIRECTION( '', ( 0.000000000000000, 0.000000000000000, -1.00000000000000 ) );
#173 = DIRECTION( '', ( -1.00000000000000, 0.000000000000000, 0.000000000000000 ) );
#174 = ORIENTED_EDGE( '', *, *, #179, .T. );
#175 = CARTESIAN_POINT( '', ( 1.00213090078545E-015, 0.000000000000000, 14.7750000000000 ) );
#176 = DIRECTION( '', ( 0.000000000000000, 0.000000000000000, -1.00000000000000 ) );
#177 = DIRECTION( '', ( 1.00000000000000, 0.000000000000000, 0.000000000000000 ) );
#178 = EDGE_CURVE( '', #186, #186, #187, .F. );
#179 = EDGE_CURVE( '', #188, #188, #189, .F. );
#180 = EDGE_CURVE( '', #190, #190, #191, .F. );
#181 = EDGE_CURVE( '', #192, #192, #193, .T. );
#182 = EDGE_CURVE( '', #194, #194, #195, .T. );
#183 = EDGE_CURVE( '', #196, #196, #197, .T. );
#184 = EDGE_CURVE( '', #198, #198, #199, .T. );
#185 = EDGE_CURVE( '', #200, #200, #201, .F. );
#186 = VERTEX_POINT( '', #202 );
#187 = CIRCLE( '', #203, 15.1000000000000 );
#188 = VERTEX_POINT( '', #204 );
#189 = CIRCLE( '', #205, 8.53668553948194 );
#190 = VERTEX_POINT( '', #206 );
#191 = CIRCLE( '', #207, 10.0000000000000 );
#192 = VERTEX_POINT( '', #208 );
#193 = CIRCLE( '', #209, 9.00000000000000 );
#194 = VERTEX_POINT( '', #210 );
#195 = CIRCLE( '', #211, 10.0000000000000 );
#196 = VERTEX_POINT( '', #212 );
#197 = CIRCLE( '', #213, 16.5000000000000 );
#198 = VERTEX_POINT( '', #214 );
#199 = CIRCLE( '', #215, 16.5000000000000 );
#200 = VERTEX_POINT( '', #216 );
#201 = CIRCLE( '', #217, 15.5720729309053 );
#202 = CARTESIAN_POINT( '', ( -15.1000000000000, 0.000000000000000, 19.0000000000000 ) );
#203 = AXIS2_PLACEMENT_3D( '', #218, #219, #220 );
#204 = CARTESIAN_POINT( '', ( -8.53668553948194, 0.000000000000000, 19.0000000000000 ) );
#205 = AXIS2_PLACEMENT_3D( '', #221, #222, #223 );
#206 = CARTESIAN_POINT( '', ( -10.0000000000000, 0.000000000000000, -24.0000000000000 ) );
#207 = AXIS2_PLACEMENT_3D( '', #224, #225, #226 );
#208 = CARTESIAN_POINT( '', ( -9.00000000000000, 0.000000000000000, -25.0000000000000 ) );
#209 = AXIS2_PLACEMENT_3D( '', #227, #228, #229 );
#210 = CARTESIAN_POINT( '', ( 10.0000000000000, 0.000000000000000, 0.000000000000000 ) );
#211 = AXIS2_PLACEMENT_3D( '', #230, #231, #232 );
#212 = CARTESIAN_POINT( '', ( 16.5000000000000, 0.000000000000000, 0.000000000000000 ) );
#213 = AXIS2_PLACEMENT_3D( '', #233, #234, #235 );
#214 = CARTESIAN_POINT( '', ( -16.5000000000000, 0.000000000000000, 17.4290371925837 ) );
#215 = AXIS2_PLACEMENT_3D( '', #236, #237, #238 );
#216 = CARTESIAN_POINT( '', ( 15.5720729309053, 0.000000000000000, 18.7542543867133 ) );
#217 = AXIS2_PLACEMENT_3D( '', #239, #240, #241 );
#218 = CARTESIAN_POINT( '', ( 0.000000000000000, 0.000000000000000, 19.0000000000000 ) );
#219 = DIRECTION( '', ( 0.000000000000000, 0.000000000000000, -1.00000000000000 ) );
#220 = DIRECTION( '', ( -1.00000000000000, 0.000000000000000, 0.000000000000000 ) );
#221 = CARTESIAN_POINT( '', ( 1.00213090078545E-015, 0.000000000000000, 19.0000000000000 ) );
#222 = DIRECTION( '', ( 0.000000000000000, 0.000000000000000, -1.00000000000000 ) );
#223 = DIRECTION( '', ( -1.00000000000000, 0.000000000000000, 0.000000000000000 ) );
#224 = CARTESIAN_POINT( '', ( 0.000000000000000, 0.000000000000000, -24.0000000000000 ) );
#225 = DIRECTION( '', ( 0.000000000000000, 0.000000000000000, -1.00000000000000 ) );
#226 = DIRECTION( '', ( -1.00000000000000, 0.000000000000000, 0.000000000000000 ) );
#227 = CARTESIAN_POINT( '', ( 0.000000000000000, 0.000000000000000, -25.0000000000000 ) );
#228 = DIRECTION( '', ( 0.000000000000000, 0.000000000000000, -1.00000000000000 ) );
#229 = DIRECTION( '', ( -1.00000000000000, 0.000000000000000, 0.000000000000000 ) );
#230 = CARTESIAN_POINT( '', ( 0.000000000000000, 0.000000000000000, 0.000000000000000 ) );
#231 = DIRECTION( '', ( 0.000000000000000, 0.000000000000000, -1.00000000000000 ) );
#232 = DIRECTION( '', ( 1.00000000000000, 0.000000000000000, 0.000000000000000 ) );
#233 = CARTESIAN_POINT( '', ( 3.30643715532042E-015, 0.000000000000000, 0.000000000000000 ) );
#234 = DIRECTION( '', ( 0.000000000000000, 0.000000000000000, -1.00000000000000 ) );
#235 = DIRECTION( '', ( 1.00000000000000, 0.000000000000000, 0.000000000000000 ) );
#236 = CARTESIAN_POINT( '', ( 0.000000000000000, 0.000000000000000, 17.4290371925837 ) );
#237 = DIRECTION( '', ( 0.000000000000000, 0.000000000000000, -1.00000000000000 ) );
#238 = DIRECTION( '', ( -1.00000000000000, 0.000000000000000, 0.000000000000000 ) );
#239 = CARTESIAN_POINT( '', ( 0.000000000000000, 0.000000000000000, 18.7542543867133 ) );
#240 = DIRECTION( '', ( 0.000000000000000, 0.000000000000000, 1.00000000000000 ) );
#241 = DIRECTION( '', ( 1.00000000000000, 0.000000000000000, 0.000000000000000 ) );
ENDSEC;
END-ISO-10303-21;
