ISO-10303-21;
HEADER;
FILE_DESCRIPTION( ( 'Unknown' ), '1' );
FILE_NAME( 'S:/LEAVE 2D&3D CAD/LEAVE 3D-PAR/Metric/PT/PT49-3D/PT49-2614.stp', 'Unknown', ( 'Unknown' ), ( 'Unknown' ), 'XStep 1.0', 'Unknown', '  ' );
FILE_SCHEMA( ( 'CONFIG_CONTROL_DESIGN' ) );
ENDSEC;
DATA;
#1 = DESIGN_CONTEXT( '', #27, 'design' );
#2 = APPLICATION_PROTOCOL_DEFINITION( 'INTERNATIONAL STANDARD', 'config_control_design', 1994, #27 );
#3 = PRODUCT_CATEGORY_RELATIONSHIP( 'NONE', 'NONE', #28, #29 );
#4 = DATE_AND_TIME( #30, #31 );
#5 = DATE_TIME_ROLE( 'creation_date' );
#6 = DATE_TIME_ROLE( 'classification_date' );
#7 = PERSON_AND_ORGANIZATION_ROLE( 'creator' );
#8 = PERSON_AND_ORGANIZATION_ROLE( 'design_supplier' );
#9 = PERSON_AND_ORGANIZATION_ROLE( 'classification_officer' );
#10 = PERSON_AND_ORGANIZATION_ROLE( 'design_owner' );
#11 = APPROVAL_PERSON_ORGANIZATION( #32, #33, #34 );
#12 = APPROVAL_DATE_TIME( #4, #33 );
#13 = CC_DESIGN_APPROVAL( #33, ( #35, #36, #37 ) );
#14 = CC_DESIGN_DATE_AND_TIME_ASSIGNMENT( #4, #5, ( #37 ) );
#15 = CC_DESIGN_DATE_AND_TIME_ASSIGNMENT( #4, #6, ( #35 ) );
#16 = CC_DESIGN_PERSON_AND_ORGANIZATION_ASSIGNMENT( #32, #10, ( #38 ) );
#17 = CC_DESIGN_PERSON_AND_ORGANIZATION_ASSIGNMENT( #32, #7, ( #37 ) );
#18 = CC_DESIGN_PERSON_AND_ORGANIZATION_ASSIGNMENT( #32, #7, ( #36 ) );
#19 = CC_DESIGN_PERSON_AND_ORGANIZATION_ASSIGNMENT( #32, #8, ( #36 ) );
#20 = CC_DESIGN_SECURITY_CLASSIFICATION( #35, ( #36 ) );
#21 = CC_DESIGN_PERSON_AND_ORGANIZATION_ASSIGNMENT( #32, #9, ( #35 ) );
#22 = SHAPE_DEFINITION_REPRESENTATION( #39, #40 );
#23 =  ( GEOMETRIC_REPRESENTATION_CONTEXT( 3 )GLOBAL_UNCERTAINTY_ASSIGNED_CONTEXT( ( #43 ) )GLOBAL_UNIT_ASSIGNED_CONTEXT( ( #45, #46, #47 ) )REPRESENTATION_CONTEXT( 'NONE', 'WORKSPACE' ) );
#27 = APPLICATION_CONTEXT( 'CONFIGURATION CONTROLLED 3D DESIGNS OF MECHANICAL PARTS AND ASSEMBLIES' );
#28 = PRODUCT_CATEGORY( 'part', 'NONE' );
#29 = PRODUCT_RELATED_PRODUCT_CATEGORY( 'detail', ' ', ( #38 ) );
#30 = CALENDAR_DATE( 2009, 11, 10 );
#31 = LOCAL_TIME( 9, 27, 55.0000000000000, #49 );
#32 = PERSON_AND_ORGANIZATION( #50, #51 );
#33 = APPROVAL( #52, 'SOLID MODEL' );
#34 = APPROVAL_ROLE( 'APPROVED' );
#35 = SECURITY_CLASSIFICATION( '', '', #53 );
#36 = PRODUCT_DEFINITION_FORMATION_WITH_SPECIFIED_SOURCE( ' ', 'NONE', #38, .NOT_KNOWN. );
#37 = PRODUCT_DEFINITION( 'NONE', 'NONE', #36, #1 );
#38 = PRODUCT( '1', '1', 'PART-1-DESC', ( #54 ) );
#39 = PRODUCT_DEFINITION_SHAPE( 'NONE', 'NONE', #37 );
#40 = ADVANCED_BREP_SHAPE_REPRESENTATION( '1', ( #55, #56 ), #23 );
#43 = UNCERTAINTY_MEASURE_WITH_UNIT( LENGTH_MEASURE( 0.00100000000000000 ), #45, '', '' );
#45 =  ( CONVERSION_BASED_UNIT( 'MILLIMETRE', #59 )LENGTH_UNIT(  )NAMED_UNIT( #62 ) );
#46 =  ( NAMED_UNIT( #64 )PLANE_ANGLE_UNIT(  )SI_UNIT( $, .RADIAN. ) );
#47 =  ( NAMED_UNIT( #64 )SOLID_ANGLE_UNIT(  )SI_UNIT( $, .STERADIAN. ) );
#49 = COORDINATED_UNIVERSAL_TIME_OFFSET( 8, 0, .AHEAD. );
#50 = PERSON( '', 'UNSPECIFIED', $, $, $, $ );
#51 = ORGANIZATION( 'UNSPECIFIED', 'UNSPECIFIED', 'UNSPECIFIED' );
#52 = APPROVAL_STATUS( 'approved' );
#53 = SECURITY_CLASSIFICATION_LEVEL( 'unclassified' );
#54 = MECHANICAL_CONTEXT( '', #27, 'mechanical' );
#55 = MANIFOLD_SOLID_BREP( '1', #70 );
#56 = AXIS2_PLACEMENT_3D( '', #71, #72, #73 );
#59 = LENGTH_MEASURE_WITH_UNIT( LENGTH_MEASURE( 1.00000000000000 ), #74 );
#62 = DIMENSIONAL_EXPONENTS( 1.00000000000000, 0.000000000000000, 0.000000000000000, 0.000000000000000, 0.000000000000000, 0.000000000000000, 0.000000000000000 );
#64 = DIMENSIONAL_EXPONENTS( 0.000000000000000, 0.000000000000000, 0.000000000000000, 0.000000000000000, 0.000000000000000, 0.000000000000000, 0.000000000000000 );
#70 = CLOSED_SHELL( '', ( #75, #76, #77, #78, #79, #80, #81, #82, #83, #84, #85, #86, #87, #88, #89 ) );
#71 = CARTESIAN_POINT( '', ( 0.000000000000000, 0.000000000000000, 0.000000000000000 ) );
#72 = DIRECTION( '', ( 0.000000000000000, 0.000000000000000, 1.00000000000000 ) );
#73 = DIRECTION( '', ( 1.00000000000000, 0.000000000000000, 0.000000000000000 ) );
#74 =  ( NAMED_UNIT( #62 )LENGTH_UNIT(  )SI_UNIT( .MILLI., .METRE. ) );
#75 = ADVANCED_FACE( '', ( #91, #92 ), #93, .F. );
#76 = ADVANCED_FACE( '', ( #94, #95 ), #96, .F. );
#77 = ADVANCED_FACE( '', ( #97, #98 ), #99, .T. );
#78 = ADVANCED_FACE( '', ( #100, #101 ), #102, .T. );
#79 = ADVANCED_FACE( '', ( #103, #104 ), #105, .F. );
#80 = ADVANCED_FACE( '', ( #106, #107 ), #108, .T. );
#81 = ADVANCED_FACE( '', ( #109 ), #110, .T. );
#82 = ADVANCED_FACE( '', ( #111, #112 ), #113, .T. );
#83 = ADVANCED_FACE( '', ( #114, #115 ), #116, .T. );
#84 = ADVANCED_FACE( '', ( #117, #118 ), #119, .F. );
#85 = ADVANCED_FACE( '', ( #120, #121 ), #122, .T. );
#86 = ADVANCED_FACE( '', ( #123, #124 ), #125, .T. );
#87 = ADVANCED_FACE( '', ( #126, #127 ), #128, .T. );
#88 = ADVANCED_FACE( '', ( #129 ), #130, .T. );
#89 = ADVANCED_FACE( '', ( #131, #132 ), #133, .F. );
#91 = FACE_OUTER_BOUND( '', #134, .T. );
#92 = FACE_BOUND( '', #135, .T. );
#93 = PLANE( '', #136 );
#94 = FACE_OUTER_BOUND( '', #137, .T. );
#95 = FACE_OUTER_BOUND( '', #138, .T. );
#96 = TOROIDAL_SURFACE( '', #139, 12.0000000000000, 0.500000000000000 );
#97 = FACE_BOUND( '', #140, .T. );
#98 = FACE_OUTER_BOUND( '', #141, .T. );
#99 = CONICAL_SURFACE( '', #142, 12.0000000000000, 0.271054781360375 );
#100 = FACE_OUTER_BOUND( '', #143, .T. );
#101 = FACE_OUTER_BOUND( '', #144, .T. );
#102 = CYLINDRICAL_SURFACE( '', #145, 12.0000000000000 );
#103 = FACE_OUTER_BOUND( '', #146, .T. );
#104 = FACE_OUTER_BOUND( '', #147, .T. );
#105 = TOROIDAL_SURFACE( '', #148, 12.1000000000000, 0.500000000000000 );
#106 = FACE_OUTER_BOUND( '', #149, .T. );
#107 = FACE_BOUND( '', #150, .T. );
#108 = CONICAL_SURFACE( '', #151, 11.0000000000000, 1.04719755119660 );
#109 = FACE_OUTER_BOUND( '', #152, .T. );
#110 = PLANE( '', #153 );
#111 = FACE_OUTER_BOUND( '', #154, .T. );
#112 = FACE_OUTER_BOUND( '', #155, .T. );
#113 = CYLINDRICAL_SURFACE( '', #156, 11.6000000000000 );
#114 = FACE_OUTER_BOUND( '', #157, .T. );
#115 = FACE_OUTER_BOUND( '', #158, .T. );
#116 = CYLINDRICAL_SURFACE( '', #159, 13.0000000000000 );
#117 = FACE_BOUND( '', #160, .T. );
#118 = FACE_OUTER_BOUND( '', #161, .T. );
#119 = PLANE( '', #162 );
#120 = FACE_BOUND( '', #163, .T. );
#121 = FACE_OUTER_BOUND( '', #164, .T. );
#122 = PLANE( '', #165 );
#123 = FACE_OUTER_BOUND( '', #166, .T. );
#124 = FACE_OUTER_BOUND( '', #167, .T. );
#125 = CYLINDRICAL_SURFACE( '', #168, 11.5000000000000 );
#126 = FACE_BOUND( '', #169, .T. );
#127 = FACE_OUTER_BOUND( '', #170, .T. );
#128 = CONICAL_SURFACE( '', #171, 11.5000000000000, 0.785398163397448 );
#129 = FACE_OUTER_BOUND( '', #172, .T. );
#130 = SPHERICAL_SURFACE( '', #173, 7.93750000000000 );
#131 = FACE_OUTER_BOUND( '', #174, .T. );
#132 = FACE_OUTER_BOUND( '', #175, .T. );
#133 = TOROIDAL_SURFACE( '', #176, 12.1000000000000, 0.500000000000000 );
#134 = EDGE_LOOP( '', ( #177 ) );
#135 = EDGE_LOOP( '', ( #178 ) );
#136 = AXIS2_PLACEMENT_3D( '', #179, #180, #181 );
#137 = EDGE_LOOP( '', ( #182 ) );
#138 = EDGE_LOOP( '', ( #183 ) );
#139 = AXIS2_PLACEMENT_3D( '', #184, #185, #186 );
#140 = EDGE_LOOP( '', ( #187 ) );
#141 = EDGE_LOOP( '', ( #188 ) );
#142 = AXIS2_PLACEMENT_3D( '', #189, #190, #191 );
#143 = EDGE_LOOP( '', ( #192 ) );
#144 = EDGE_LOOP( '', ( #193 ) );
#145 = AXIS2_PLACEMENT_3D( '', #194, #195, #196 );
#146 = EDGE_LOOP( '', ( #197 ) );
#147 = EDGE_LOOP( '', ( #198 ) );
#148 = AXIS2_PLACEMENT_3D( '', #199, #200, #201 );
#149 = EDGE_LOOP( '', ( #202 ) );
#150 = EDGE_LOOP( '', ( #203 ) );
#151 = AXIS2_PLACEMENT_3D( '', #204, #205, #206 );
#152 = EDGE_LOOP( '', ( #207 ) );
#153 = AXIS2_PLACEMENT_3D( '', #208, #209, #210 );
#154 = EDGE_LOOP( '', ( #211 ) );
#155 = EDGE_LOOP( '', ( #212 ) );
#156 = AXIS2_PLACEMENT_3D( '', #213, #214, #215 );
#157 = EDGE_LOOP( '', ( #216 ) );
#158 = EDGE_LOOP( '', ( #217 ) );
#159 = AXIS2_PLACEMENT_3D( '', #218, #219, #220 );
#160 = EDGE_LOOP( '', ( #221 ) );
#161 = EDGE_LOOP( '', ( #222 ) );
#162 = AXIS2_PLACEMENT_3D( '', #223, #224, #225 );
#163 = EDGE_LOOP( '', ( #226 ) );
#164 = EDGE_LOOP( '', ( #227 ) );
#165 = AXIS2_PLACEMENT_3D( '', #228, #229, #230 );
#166 = EDGE_LOOP( '', ( #231 ) );
#167 = EDGE_LOOP( '', ( #232 ) );
#168 = AXIS2_PLACEMENT_3D( '', #233, #234, #235 );
#169 = EDGE_LOOP( '', ( #236 ) );
#170 = EDGE_LOOP( '', ( #237 ) );
#171 = AXIS2_PLACEMENT_3D( '', #238, #239, #240 );
#172 = EDGE_LOOP( '', ( #241 ) );
#173 = AXIS2_PLACEMENT_3D( '', #242, #243, #244 );
#174 = EDGE_LOOP( '', ( #245 ) );
#175 = EDGE_LOOP( '', ( #246 ) );
#176 = AXIS2_PLACEMENT_3D( '', #247, #248, #249 );
#177 = ORIENTED_EDGE( '', *, *, #250, .T. );
#178 = ORIENTED_EDGE( '', *, *, #251, .F. );
#179 = CARTESIAN_POINT( '', ( 0.000000000000000, 0.000000000000000, 16.7000000000000 ) );
#180 = DIRECTION( '', ( 0.000000000000000, 0.000000000000000, -1.00000000000000 ) );
#181 = DIRECTION( '', ( -1.00000000000000, 0.000000000000000, 0.000000000000000 ) );
#182 = ORIENTED_EDGE( '', *, *, #252, .F. );
#183 = ORIENTED_EDGE( '', *, *, #253, .F. );
#184 = CARTESIAN_POINT( '', ( 0.000000000000000, 0.000000000000000, 15.7000000000000 ) );
#185 = DIRECTION( '', ( 0.000000000000000, 0.000000000000000, 1.00000000000000 ) );
#186 = DIRECTION( '', ( 1.00000000000000, 0.000000000000000, 0.000000000000000 ) );
#187 = ORIENTED_EDGE( '', *, *, #254, .T. );
#188 = ORIENTED_EDGE( '', *, *, #255, .T. );
#189 = CARTESIAN_POINT( '', ( 0.000000000000000, 0.000000000000000, 11.5000000000000 ) );
#190 = DIRECTION( '', ( -0.000000000000000, 0.000000000000000, -1.00000000000000 ) );
#191 = DIRECTION( '', ( -1.00000000000000, 0.000000000000000, 0.000000000000000 ) );
#192 = ORIENTED_EDGE( '', *, *, #255, .F. );
#193 = ORIENTED_EDGE( '', *, *, #256, .T. );
#194 = CARTESIAN_POINT( '', ( 0.000000000000000, 0.000000000000000, 16.7000000000000 ) );
#195 = DIRECTION( '', ( -0.000000000000000, -0.000000000000000, 1.00000000000000 ) );
#196 = DIRECTION( '', ( -1.00000000000000, 0.000000000000000, 0.000000000000000 ) );
#197 = ORIENTED_EDGE( '', *, *, #254, .F. );
#198 = ORIENTED_EDGE( '', *, *, #257, .F. );
#199 = CARTESIAN_POINT( '', ( 0.000000000000000, 0.000000000000000, 13.0075792007783 ) );
#200 = DIRECTION( '', ( 0.000000000000000, 0.000000000000000, 1.00000000000000 ) );
#201 = DIRECTION( '', ( 1.00000000000000, 0.000000000000000, 0.000000000000000 ) );
#202 = ORIENTED_EDGE( '', *, *, #256, .F. );
#203 = ORIENTED_EDGE( '', *, *, #258, .F. );
#204 = CARTESIAN_POINT( '', ( 0.000000000000000, 0.000000000000000, 0.000000000000000 ) );
#205 = DIRECTION( '', ( -0.000000000000000, -0.000000000000000, 1.00000000000000 ) );
#206 = DIRECTION( '', ( 1.00000000000000, 0.000000000000000, 0.000000000000000 ) );
#207 = ORIENTED_EDGE( '', *, *, #258, .T. );
#208 = CARTESIAN_POINT( '', ( 0.000000000000000, 0.000000000000000, 0.000000000000000 ) );
#209 = DIRECTION( '', ( 0.000000000000000, 0.000000000000000, -1.00000000000000 ) );
#210 = DIRECTION( '', ( -1.00000000000000, 0.000000000000000, 0.000000000000000 ) );
#211 = ORIENTED_EDGE( '', *, *, #259, .T. );
#212 = ORIENTED_EDGE( '', *, *, #257, .T. );
#213 = CARTESIAN_POINT( '', ( 0.000000000000000, 0.000000000000000, 54.0000000000000 ) );
#214 = DIRECTION( '', ( -0.000000000000000, -0.000000000000000, -1.00000000000000 ) );
#215 = DIRECTION( '', ( 1.00000000000000, 0.000000000000000, 0.000000000000000 ) );
#216 = ORIENTED_EDGE( '', *, *, #260, .T. );
#217 = ORIENTED_EDGE( '', *, *, #261, .T. );
#218 = CARTESIAN_POINT( '', ( 0.000000000000000, 0.000000000000000, 54.0000000000000 ) );
#219 = DIRECTION( '', ( -0.000000000000000, -0.000000000000000, -1.00000000000000 ) );
#220 = DIRECTION( '', ( 1.00000000000000, 0.000000000000000, 0.000000000000000 ) );
#221 = ORIENTED_EDGE( '', *, *, #262, .T. );
#222 = ORIENTED_EDGE( '', *, *, #260, .F. );
#223 = CARTESIAN_POINT( '', ( 12.0000000000000, 0.000000000000000, 13.7000000000000 ) );
#224 = DIRECTION( '', ( 0.000000000000000, 0.000000000000000, 1.00000000000000 ) );
#225 = DIRECTION( '', ( 1.00000000000000, 0.000000000000000, 0.000000000000000 ) );
#226 = ORIENTED_EDGE( '', *, *, #253, .T. );
#227 = ORIENTED_EDGE( '', *, *, #261, .F. );
#228 = CARTESIAN_POINT( '', ( -7.95994129984545E-016, -13.0000000000000, 15.2000000000000 ) );
#229 = DIRECTION( '', ( 0.000000000000000, 0.000000000000000, 1.00000000000000 ) );
#230 = DIRECTION( '', ( 1.00000000000000, 0.000000000000000, 0.000000000000000 ) );
#231 = ORIENTED_EDGE( '', *, *, #252, .T. );
#232 = ORIENTED_EDGE( '', *, *, #263, .T. );
#233 = CARTESIAN_POINT( '', ( 0.000000000000000, 0.000000000000000, -57.0000000000000 ) );
#234 = DIRECTION( '', ( -0.000000000000000, -0.000000000000000, 1.00000000000000 ) );
#235 = DIRECTION( '', ( -1.00000000000000, 0.000000000000000, 0.000000000000000 ) );
#236 = ORIENTED_EDGE( '', *, *, #250, .F. );
#237 = ORIENTED_EDGE( '', *, *, #263, .F. );
#238 = CARTESIAN_POINT( '', ( 0.000000000000000, 0.000000000000000, 16.2000000000000 ) );
#239 = DIRECTION( '', ( -0.000000000000000, 0.000000000000000, -1.00000000000000 ) );
#240 = DIRECTION( '', ( -1.00000000000000, 0.000000000000000, 0.000000000000000 ) );
#241 = ORIENTED_EDGE( '', *, *, #251, .T. );
#242 = CARTESIAN_POINT( '', ( 3.63321513100881E-032, 5.93368655922519E-016, 12.8625000000000 ) );
#243 = DIRECTION( '', ( 0.000000000000000, 0.000000000000000, -1.00000000000000 ) );
#244 = DIRECTION( '', ( -6.12303176911189E-017, -1.00000000000000, 0.000000000000000 ) );
#245 = ORIENTED_EDGE( '', *, *, #259, .F. );
#246 = ORIENTED_EDGE( '', *, *, #262, .F. );
#247 = CARTESIAN_POINT( '', ( 0.000000000000000, 0.000000000000000, 13.2000000000000 ) );
#248 = DIRECTION( '', ( 0.000000000000000, 0.000000000000000, 1.00000000000000 ) );
#249 = DIRECTION( '', ( 1.00000000000000, 0.000000000000000, 0.000000000000000 ) );
#250 = EDGE_CURVE( '', #264, #264, #265, .F. );
#251 = EDGE_CURVE( '', #266, #266, #267, .F. );
#252 = EDGE_CURVE( '', #268, #268, #269, .T. );
#253 = EDGE_CURVE( '', #270, #270, #271, .F. );
#254 = EDGE_CURVE( '', #272, #272, #273, .T. );
#255 = EDGE_CURVE( '', #274, #274, #275, .T. );
#256 = EDGE_CURVE( '', #276, #276, #277, .F. );
#257 = EDGE_CURVE( '', #278, #278, #279, .T. );
#258 = EDGE_CURVE( '', #280, #280, #281, .T. );
#259 = EDGE_CURVE( '', #282, #282, #283, .F. );
#260 = EDGE_CURVE( '', #284, #284, #285, .T. );
#261 = EDGE_CURVE( '', #286, #286, #287, .T. );
#262 = EDGE_CURVE( '', #288, #288, #289, .T. );
#263 = EDGE_CURVE( '', #290, #290, #291, .T. );
#264 = VERTEX_POINT( '', #292 );
#265 = CIRCLE( '', #293, 11.0000000000000 );
#266 = VERTEX_POINT( '', #294 );
#267 = CIRCLE( '', #295, 6.94820120606765 );
#268 = VERTEX_POINT( '', #296 );
#269 = CIRCLE( '', #297, 11.5000000000000 );
#270 = VERTEX_POINT( '', #298 );
#271 = CIRCLE( '', #299, 12.0000000000000 );
#272 = VERTEX_POINT( '', #300 );
#273 = CIRCLE( '', #301, 11.6182554915289 );
#274 = VERTEX_POINT( '', #302 );
#275 = CIRCLE( '', #303, 12.0000000000000 );
#276 = VERTEX_POINT( '', #304 );
#277 = CIRCLE( '', #305, 12.0000000000000 );
#278 = VERTEX_POINT( '', #306 );
#279 = CIRCLE( '', #307, 11.6000000000000 );
#280 = VERTEX_POINT( '', #308 );
#281 = CIRCLE( '', #309, 11.0000000000000 );
#282 = VERTEX_POINT( '', #310 );
#283 = CIRCLE( '', #311, 11.6000000000000 );
#284 = VERTEX_POINT( '', #312 );
#285 = CIRCLE( '', #313, 13.0000000000000 );
#286 = VERTEX_POINT( '', #314 );
#287 = CIRCLE( '', #315, 13.0000000000000 );
#288 = VERTEX_POINT( '', #316 );
#289 = CIRCLE( '', #317, 12.1000000000000 );
#290 = VERTEX_POINT( '', #318 );
#291 = CIRCLE( '', #319, 11.5000000000000 );
#292 = CARTESIAN_POINT( '', ( -11.0000000000000, 0.000000000000000, 16.7000000000000 ) );
#293 = AXIS2_PLACEMENT_3D( '', #320, #321, #322 );
#294 = CARTESIAN_POINT( '', ( -6.94820120606765, 5.93368655922519E-016, 16.7000000000000 ) );
#295 = AXIS2_PLACEMENT_3D( '', #323, #324, #325 );
#296 = CARTESIAN_POINT( '', ( 11.5000000000000, 0.000000000000000, 15.7000000000000 ) );
#297 = AXIS2_PLACEMENT_3D( '', #326, #327, #328 );
#298 = CARTESIAN_POINT( '', ( 12.0000000000000, 0.000000000000000, 15.2000000000000 ) );
#299 = AXIS2_PLACEMENT_3D( '', #329, #330, #331 );
#300 = CARTESIAN_POINT( '', ( -11.6182554915289, 0.000000000000000, 12.8737052729285 ) );
#301 = AXIS2_PLACEMENT_3D( '', #332, #333, #334 );
#302 = CARTESIAN_POINT( '', ( 12.0000000000000, 0.000000000000000, 11.5000000000000 ) );
#303 = AXIS2_PLACEMENT_3D( '', #335, #336, #337 );
#304 = CARTESIAN_POINT( '', ( -12.0000000000000, 0.000000000000000, 0.577350269189626 ) );
#305 = AXIS2_PLACEMENT_3D( '', #338, #339, #340 );
#306 = CARTESIAN_POINT( '', ( 11.6000000000000, 0.000000000000000, 13.0075792007783 ) );
#307 = AXIS2_PLACEMENT_3D( '', #341, #342, #343 );
#308 = CARTESIAN_POINT( '', ( -11.0000000000000, 0.000000000000000, 0.000000000000000 ) );
#309 = AXIS2_PLACEMENT_3D( '', #344, #345, #346 );
#310 = CARTESIAN_POINT( '', ( 11.6000000000000, 0.000000000000000, 13.2000000000000 ) );
#311 = AXIS2_PLACEMENT_3D( '', #347, #348, #349 );
#312 = CARTESIAN_POINT( '', ( 13.0000000000000, 0.000000000000000, 13.7000000000000 ) );
#313 = AXIS2_PLACEMENT_3D( '', #350, #351, #352 );
#314 = CARTESIAN_POINT( '', ( -13.0000000000000, 0.000000000000000, 15.2000000000000 ) );
#315 = AXIS2_PLACEMENT_3D( '', #353, #354, #355 );
#316 = CARTESIAN_POINT( '', ( 12.1000000000000, 0.000000000000000, 13.7000000000000 ) );
#317 = AXIS2_PLACEMENT_3D( '', #356, #357, #358 );
#318 = CARTESIAN_POINT( '', ( -11.5000000000000, 0.000000000000000, 16.2000000000000 ) );
#319 = AXIS2_PLACEMENT_3D( '', #359, #360, #361 );
#320 = CARTESIAN_POINT( '', ( 0.000000000000000, 0.000000000000000, 16.7000000000000 ) );
#321 = DIRECTION( '', ( 0.000000000000000, 0.000000000000000, -1.00000000000000 ) );
#322 = DIRECTION( '', ( -1.00000000000000, 0.000000000000000, 0.000000000000000 ) );
#323 = CARTESIAN_POINT( '', ( 3.63321513100881E-032, 5.93368655922519E-016, 16.7000000000000 ) );
#324 = DIRECTION( '', ( 0.000000000000000, 0.000000000000000, -1.00000000000000 ) );
#325 = DIRECTION( '', ( -1.00000000000000, 0.000000000000000, 0.000000000000000 ) );
#326 = CARTESIAN_POINT( '', ( 0.000000000000000, 0.000000000000000, 15.7000000000000 ) );
#327 = DIRECTION( '', ( 0.000000000000000, 0.000000000000000, 1.00000000000000 ) );
#328 = DIRECTION( '', ( 1.00000000000000, 0.000000000000000, 0.000000000000000 ) );
#329 = CARTESIAN_POINT( '', ( 0.000000000000000, 0.000000000000000, 15.2000000000000 ) );
#330 = DIRECTION( '', ( 0.000000000000000, 0.000000000000000, 1.00000000000000 ) );
#331 = DIRECTION( '', ( 1.00000000000000, 0.000000000000000, 0.000000000000000 ) );
#332 = CARTESIAN_POINT( '', ( 0.000000000000000, 0.000000000000000, 12.8737052729285 ) );
#333 = DIRECTION( '', ( 0.000000000000000, 0.000000000000000, -1.00000000000000 ) );
#334 = DIRECTION( '', ( -1.00000000000000, 0.000000000000000, 0.000000000000000 ) );
#335 = CARTESIAN_POINT( '', ( 0.000000000000000, 0.000000000000000, 11.5000000000000 ) );
#336 = DIRECTION( '', ( 0.000000000000000, 0.000000000000000, 1.00000000000000 ) );
#337 = DIRECTION( '', ( 1.00000000000000, 0.000000000000000, 0.000000000000000 ) );
#338 = CARTESIAN_POINT( '', ( 0.000000000000000, 0.000000000000000, 0.577350269189626 ) );
#339 = DIRECTION( '', ( 0.000000000000000, 0.000000000000000, -1.00000000000000 ) );
#340 = DIRECTION( '', ( -1.00000000000000, 0.000000000000000, 0.000000000000000 ) );
#341 = CARTESIAN_POINT( '', ( 0.000000000000000, 0.000000000000000, 13.0075792007783 ) );
#342 = DIRECTION( '', ( 0.000000000000000, 0.000000000000000, 1.00000000000000 ) );
#343 = DIRECTION( '', ( 1.00000000000000, 0.000000000000000, 0.000000000000000 ) );
#344 = CARTESIAN_POINT( '', ( 0.000000000000000, 0.000000000000000, 0.000000000000000 ) );
#345 = DIRECTION( '', ( 0.000000000000000, 0.000000000000000, -1.00000000000000 ) );
#346 = DIRECTION( '', ( -1.00000000000000, 0.000000000000000, 0.000000000000000 ) );
#347 = CARTESIAN_POINT( '', ( 0.000000000000000, 0.000000000000000, 13.2000000000000 ) );
#348 = DIRECTION( '', ( 0.000000000000000, 0.000000000000000, 1.00000000000000 ) );
#349 = DIRECTION( '', ( 1.00000000000000, 0.000000000000000, 0.000000000000000 ) );
#350 = CARTESIAN_POINT( '', ( 0.000000000000000, 0.000000000000000, 13.7000000000000 ) );
#351 = DIRECTION( '', ( 0.000000000000000, 0.000000000000000, 1.00000000000000 ) );
#352 = DIRECTION( '', ( 1.00000000000000, 0.000000000000000, 0.000000000000000 ) );
#353 = CARTESIAN_POINT( '', ( 0.000000000000000, 0.000000000000000, 15.2000000000000 ) );
#354 = DIRECTION( '', ( 0.000000000000000, 0.000000000000000, -1.00000000000000 ) );
#355 = DIRECTION( '', ( -1.00000000000000, 0.000000000000000, 0.000000000000000 ) );
#356 = CARTESIAN_POINT( '', ( 0.000000000000000, 0.000000000000000, 13.7000000000000 ) );
#357 = DIRECTION( '', ( 0.000000000000000, 0.000000000000000, 1.00000000000000 ) );
#358 = DIRECTION( '', ( 1.00000000000000, 0.000000000000000, 0.000000000000000 ) );
#359 = CARTESIAN_POINT( '', ( 0.000000000000000, 0.000000000000000, 16.2000000000000 ) );
#360 = DIRECTION( '', ( 0.000000000000000, 0.000000000000000, -1.00000000000000 ) );
#361 = DIRECTION( '', ( -1.00000000000000, 0.000000000000000, 0.000000000000000 ) );
ENDSEC;
END-ISO-10303-21;
