ISO-10303-21;
HEADER;
FILE_DESCRIPTION( ( 'Unknown' ), '1' );
FILE_NAME( 's:/LEAVE 2D&3D CAD/LEAVE 3D-PAR/Metric/PT/PT20-3D/PT20-1010.stp', 'Unknown', ( 'Unknown' ), ( 'Unknown' ), 'XStep 1.0', 'Unknown', '  ' );
FILE_SCHEMA( ( 'CONFIG_CONTROL_DESIGN' ) );
ENDSEC;
DATA;
#1 = DESIGN_CONTEXT( '', #27, 'design' );
#2 = APPLICATION_PROTOCOL_DEFINITION( 'INTERNATIONAL STANDARD', 'config_control_design', 1994, #27 );
#3 = PRODUCT_CATEGORY_RELATIONSHIP( 'NONE', 'NONE', #28, #29 );
#4 = DATE_AND_TIME( #30, #31 );
#5 = DATE_TIME_ROLE( 'creation_date' );
#6 = DATE_TIME_ROLE( 'classification_date' );
#7 = PERSON_AND_ORGANIZATION_ROLE( 'creator' );
#8 = PERSON_AND_ORGANIZATION_ROLE( 'design_supplier' );
#9 = PERSON_AND_ORGANIZATION_ROLE( 'classification_officer' );
#10 = PERSON_AND_ORGANIZATION_ROLE( 'design_owner' );
#11 = APPROVAL_PERSON_ORGANIZATION( #32, #33, #34 );
#12 = APPROVAL_DATE_TIME( #4, #33 );
#13 = CC_DESIGN_APPROVAL( #33, ( #35, #36, #37 ) );
#14 = CC_DESIGN_DATE_AND_TIME_ASSIGNMENT( #4, #5, ( #37 ) );
#15 = CC_DESIGN_DATE_AND_TIME_ASSIGNMENT( #4, #6, ( #35 ) );
#16 = CC_DESIGN_PERSON_AND_ORGANIZATION_ASSIGNMENT( #32, #10, ( #38 ) );
#17 = CC_DESIGN_PERSON_AND_ORGANIZATION_ASSIGNMENT( #32, #7, ( #37 ) );
#18 = CC_DESIGN_PERSON_AND_ORGANIZATION_ASSIGNMENT( #32, #7, ( #36 ) );
#19 = CC_DESIGN_PERSON_AND_ORGANIZATION_ASSIGNMENT( #32, #8, ( #36 ) );
#20 = CC_DESIGN_SECURITY_CLASSIFICATION( #35, ( #36 ) );
#21 = CC_DESIGN_PERSON_AND_ORGANIZATION_ASSIGNMENT( #32, #9, ( #35 ) );
#22 = SHAPE_DEFINITION_REPRESENTATION( #39, #40 );
#23 =  ( GEOMETRIC_REPRESENTATION_CONTEXT( 3 )GLOBAL_UNCERTAINTY_ASSIGNED_CONTEXT( ( #43 ) )GLOBAL_UNIT_ASSIGNED_CONTEXT( ( #45, #46, #47 ) )REPRESENTATION_CONTEXT( 'NONE', 'WORKSPACE' ) );
#27 = APPLICATION_CONTEXT( 'CONFIGURATION CONTROLLED 3D DESIGNS OF MECHANICAL PARTS AND ASSEMBLIES' );
#28 = PRODUCT_CATEGORY( 'part', 'NONE' );
#29 = PRODUCT_RELATED_PRODUCT_CATEGORY( 'detail', ' ', ( #38 ) );
#30 = CALENDAR_DATE( 2010, 5, 0 );
#31 = LOCAL_TIME( 10, 19, 56.0000000000000, #49 );
#32 = PERSON_AND_ORGANIZATION( #50, #51 );
#33 = APPROVAL( #52, 'SOLID MODEL' );
#34 = APPROVAL_ROLE( 'APPROVED' );
#35 = SECURITY_CLASSIFICATION( '', '', #53 );
#36 = PRODUCT_DEFINITION_FORMATION_WITH_SPECIFIED_SOURCE( ' ', 'NONE', #38, .NOT_KNOWN. );
#37 = PRODUCT_DEFINITION( 'NONE', 'NONE', #36, #1 );
#38 = PRODUCT( '1', '1', 'PART-1-DESC', ( #54 ) );
#39 = PRODUCT_DEFINITION_SHAPE( 'NONE', 'NONE', #37 );
#40 = ADVANCED_BREP_SHAPE_REPRESENTATION( '1', ( #55, #56 ), #23 );
#43 = UNCERTAINTY_MEASURE_WITH_UNIT( LENGTH_MEASURE( 0.00100000000000000 ), #45, '', '' );
#45 =  ( CONVERSION_BASED_UNIT( 'MILLIMETRE', #59 )LENGTH_UNIT(  )NAMED_UNIT( #62 ) );
#46 =  ( NAMED_UNIT( #64 )PLANE_ANGLE_UNIT(  )SI_UNIT( $, .RADIAN. ) );
#47 =  ( NAMED_UNIT( #64 )SOLID_ANGLE_UNIT(  )SI_UNIT( $, .STERADIAN. ) );
#49 = COORDINATED_UNIVERSAL_TIME_OFFSET( 8, 0, .AHEAD. );
#50 = PERSON( '', 'UNSPECIFIED', $, $, $, $ );
#51 = ORGANIZATION( 'UNSPECIFIED', 'UNSPECIFIED', 'UNSPECIFIED' );
#52 = APPROVAL_STATUS( 'approved' );
#53 = SECURITY_CLASSIFICATION_LEVEL( 'unclassified' );
#54 = MECHANICAL_CONTEXT( '', #27, 'mechanical' );
#55 = MANIFOLD_SOLID_BREP( '1', #70 );
#56 = AXIS2_PLACEMENT_3D( '', #71, #72, #73 );
#59 = LENGTH_MEASURE_WITH_UNIT( LENGTH_MEASURE( 1.00000000000000 ), #74 );
#62 = DIMENSIONAL_EXPONENTS( 1.00000000000000, 0.000000000000000, 0.000000000000000, 0.000000000000000, 0.000000000000000, 0.000000000000000, 0.000000000000000 );
#64 = DIMENSIONAL_EXPONENTS( 0.000000000000000, 0.000000000000000, 0.000000000000000, 0.000000000000000, 0.000000000000000, 0.000000000000000, 0.000000000000000 );
#70 = CLOSED_SHELL( '', ( #75, #76, #77, #78, #79, #80, #81, #82, #83, #84, #85 ) );
#71 = CARTESIAN_POINT( '', ( 0.000000000000000, 0.000000000000000, 0.000000000000000 ) );
#72 = DIRECTION( '', ( 0.000000000000000, 0.000000000000000, 1.00000000000000 ) );
#73 = DIRECTION( '', ( 1.00000000000000, 0.000000000000000, 0.000000000000000 ) );
#74 =  ( NAMED_UNIT( #62 )LENGTH_UNIT(  )SI_UNIT( .MILLI., .METRE. ) );
#75 = ADVANCED_FACE( '', ( #87 ), #88, .F. );
#76 = ADVANCED_FACE( '', ( #89 ), #90, .F. );
#77 = ADVANCED_FACE( '', ( #91 ), #92, .F. );
#78 = ADVANCED_FACE( '', ( #93, #94 ), #95, .T. );
#79 = ADVANCED_FACE( '', ( #96 ), #97, .F. );
#80 = ADVANCED_FACE( '', ( #98 ), #99, .F. );
#81 = ADVANCED_FACE( '', ( #100 ), #101, .F. );
#82 = ADVANCED_FACE( '', ( #102 ), #103, .F. );
#83 = ADVANCED_FACE( '', ( #104 ), #105, .F. );
#84 = ADVANCED_FACE( '', ( #106, #107 ), #108, .F. );
#85 = ADVANCED_FACE( '', ( #109, #110 ), #111, .F. );
#87 = FACE_OUTER_BOUND( '', #112, .T. );
#88 = PLANE( '', #113 );
#89 = FACE_OUTER_BOUND( '', #114, .T. );
#90 = PLANE( '', #115 );
#91 = FACE_OUTER_BOUND( '', #116, .T. );
#92 = PLANE( '', #117 );
#93 = FACE_BOUND( '', #118, .T. );
#94 = FACE_OUTER_BOUND( '', #119, .T. );
#95 = PLANE( '', #120 );
#96 = FACE_OUTER_BOUND( '', #121, .T. );
#97 = PLANE( '', #122 );
#98 = FACE_OUTER_BOUND( '', #123, .T. );
#99 = PLANE( '', #124 );
#100 = FACE_OUTER_BOUND( '', #125, .T. );
#101 = PLANE( '', #126 );
#102 = FACE_OUTER_BOUND( '', #127, .T. );
#103 = PLANE( '', #128 );
#104 = FACE_OUTER_BOUND( '', #129, .T. );
#105 = PLANE( '', #130 );
#106 = FACE_OUTER_BOUND( '', #131, .T. );
#107 = FACE_BOUND( '', #132, .T. );
#108 = PLANE( '', #133 );
#109 = FACE_OUTER_BOUND( '', #134, .T. );
#110 = FACE_OUTER_BOUND( '', #135, .T. );
#111 = CYLINDRICAL_SURFACE( '', #136, 2.10000000000000 );
#112 = EDGE_LOOP( '', ( #137, #138, #139, #140 ) );
#113 = AXIS2_PLACEMENT_3D( '', #141, #142, #143 );
#114 = EDGE_LOOP( '', ( #144, #145, #146, #147 ) );
#115 = AXIS2_PLACEMENT_3D( '', #148, #149, #150 );
#116 = EDGE_LOOP( '', ( #151, #152, #153, #154 ) );
#117 = AXIS2_PLACEMENT_3D( '', #155, #156, #157 );
#118 = EDGE_LOOP( '', ( #158 ) );
#119 = EDGE_LOOP( '', ( #159, #160, #161, #162 ) );
#120 = AXIS2_PLACEMENT_3D( '', #163, #164, #165 );
#121 = EDGE_LOOP( '', ( #166, #167, #168, #169 ) );
#122 = AXIS2_PLACEMENT_3D( '', #170, #171, #172 );
#123 = EDGE_LOOP( '', ( #173, #174, #175, #176 ) );
#124 = AXIS2_PLACEMENT_3D( '', #177, #178, #179 );
#125 = EDGE_LOOP( '', ( #180, #181, #182, #183 ) );
#126 = AXIS2_PLACEMENT_3D( '', #184, #185, #186 );
#127 = EDGE_LOOP( '', ( #187, #188, #189, #190 ) );
#128 = AXIS2_PLACEMENT_3D( '', #191, #192, #193 );
#129 = EDGE_LOOP( '', ( #194, #195, #196, #197 ) );
#130 = AXIS2_PLACEMENT_3D( '', #198, #199, #200 );
#131 = EDGE_LOOP( '', ( #201, #202, #203, #204 ) );
#132 = EDGE_LOOP( '', ( #205 ) );
#133 = AXIS2_PLACEMENT_3D( '', #206, #207, #208 );
#134 = EDGE_LOOP( '', ( #209 ) );
#135 = EDGE_LOOP( '', ( #210 ) );
#136 = AXIS2_PLACEMENT_3D( '', #211, #212, #213 );
#137 = ORIENTED_EDGE( '', *, *, #214, .T. );
#138 = ORIENTED_EDGE( '', *, *, #215, .T. );
#139 = ORIENTED_EDGE( '', *, *, #216, .F. );
#140 = ORIENTED_EDGE( '', *, *, #217, .F. );
#141 = CARTESIAN_POINT( '', ( -5.00000000000000, 5.00000000000000, 10.0000000000000 ) );
#142 = DIRECTION( '', ( 1.00000000000000, 0.000000000000000, 0.000000000000000 ) );
#143 = DIRECTION( '', ( 0.000000000000000, 0.000000000000000, -1.00000000000000 ) );
#144 = ORIENTED_EDGE( '', *, *, #218, .F. );
#145 = ORIENTED_EDGE( '', *, *, #219, .F. );
#146 = ORIENTED_EDGE( '', *, *, #220, .F. );
#147 = ORIENTED_EDGE( '', *, *, #221, .F. );
#148 = CARTESIAN_POINT( '', ( 5.00000000000000, -5.00000000000000, 0.300000000000000 ) );
#149 = DIRECTION( '', ( -0.707106781186548, 0.000000000000000, 0.707106781186548 ) );
#150 = DIRECTION( '', ( 0.707106781186548, 0.000000000000000, 0.707106781186548 ) );
#151 = ORIENTED_EDGE( '', *, *, #216, .T. );
#152 = ORIENTED_EDGE( '', *, *, #222, .T. );
#153 = ORIENTED_EDGE( '', *, *, #223, .F. );
#154 = ORIENTED_EDGE( '', *, *, #224, .F. );
#155 = CARTESIAN_POINT( '', ( -5.00000000000000, -5.00000000000000, 10.0000000000000 ) );
#156 = DIRECTION( '', ( 0.000000000000000, 1.00000000000000, 0.000000000000000 ) );
#157 = DIRECTION( '', ( 0.000000000000000, 0.000000000000000, 1.00000000000000 ) );
#158 = ORIENTED_EDGE( '', *, *, #225, .F. );
#159 = ORIENTED_EDGE( '', *, *, #217, .T. );
#160 = ORIENTED_EDGE( '', *, *, #224, .T. );
#161 = ORIENTED_EDGE( '', *, *, #226, .T. );
#162 = ORIENTED_EDGE( '', *, *, #227, .T. );
#163 = CARTESIAN_POINT( '', ( -5.00000000000000, -5.00000000000000, 10.0000000000000 ) );
#164 = DIRECTION( '', ( 0.000000000000000, 0.000000000000000, 1.00000000000000 ) );
#165 = DIRECTION( '', ( 1.00000000000000, 0.000000000000000, 0.000000000000000 ) );
#166 = ORIENTED_EDGE( '', *, *, #228, .T. );
#167 = ORIENTED_EDGE( '', *, *, #229, .T. );
#168 = ORIENTED_EDGE( '', *, *, #214, .F. );
#169 = ORIENTED_EDGE( '', *, *, #227, .F. );
#170 = CARTESIAN_POINT( '', ( 5.00000000000000, 5.00000000000000, 10.0000000000000 ) );
#171 = DIRECTION( '', ( 0.000000000000000, -1.00000000000000, 0.000000000000000 ) );
#172 = DIRECTION( '', ( 0.000000000000000, 0.000000000000000, -1.00000000000000 ) );
#173 = ORIENTED_EDGE( '', *, *, #220, .T. );
#174 = ORIENTED_EDGE( '', *, *, #230, .F. );
#175 = ORIENTED_EDGE( '', *, *, #231, .F. );
#176 = ORIENTED_EDGE( '', *, *, #229, .F. );
#177 = CARTESIAN_POINT( '', ( 5.00000000000000, 5.00000000000000, 0.300000000000000 ) );
#178 = DIRECTION( '', ( 0.000000000000000, -0.707106781186548, 0.707106781186548 ) );
#179 = DIRECTION( '', ( 0.000000000000000, -0.707106781186548, -0.707106781186548 ) );
#180 = ORIENTED_EDGE( '', *, *, #231, .T. );
#181 = ORIENTED_EDGE( '', *, *, #232, .F. );
#182 = ORIENTED_EDGE( '', *, *, #233, .T. );
#183 = ORIENTED_EDGE( '', *, *, #215, .F. );
#184 = CARTESIAN_POINT( '', ( -5.00000000000000, 5.00000000000000, 0.300000000000000 ) );
#185 = DIRECTION( '', ( 0.707106781186548, 0.000000000000000, 0.707106781186548 ) );
#186 = DIRECTION( '', ( 0.707106781186548, 0.000000000000000, -0.707106781186548 ) );
#187 = ORIENTED_EDGE( '', *, *, #218, .T. );
#188 = ORIENTED_EDGE( '', *, *, #222, .F. );
#189 = ORIENTED_EDGE( '', *, *, #233, .F. );
#190 = ORIENTED_EDGE( '', *, *, #234, .F. );
#191 = CARTESIAN_POINT( '', ( -5.00000000000000, -5.00000000000000, 0.300000000000000 ) );
#192 = DIRECTION( '', ( 0.000000000000000, 0.707106781186548, 0.707106781186548 ) );
#193 = DIRECTION( '', ( 0.000000000000000, -0.707106781186548, 0.707106781186548 ) );
#194 = ORIENTED_EDGE( '', *, *, #223, .T. );
#195 = ORIENTED_EDGE( '', *, *, #221, .T. );
#196 = ORIENTED_EDGE( '', *, *, #228, .F. );
#197 = ORIENTED_EDGE( '', *, *, #226, .F. );
#198 = CARTESIAN_POINT( '', ( 5.00000000000000, -5.00000000000000, 10.0000000000000 ) );
#199 = DIRECTION( '', ( -1.00000000000000, 0.000000000000000, 0.000000000000000 ) );
#200 = DIRECTION( '', ( 0.000000000000000, 0.000000000000000, 1.00000000000000 ) );
#201 = ORIENTED_EDGE( '', *, *, #234, .T. );
#202 = ORIENTED_EDGE( '', *, *, #232, .T. );
#203 = ORIENTED_EDGE( '', *, *, #230, .T. );
#204 = ORIENTED_EDGE( '', *, *, #219, .T. );
#205 = ORIENTED_EDGE( '', *, *, #235, .T. );
#206 = CARTESIAN_POINT( '', ( -5.00000000000000, -5.00000000000000, 0.000000000000000 ) );
#207 = DIRECTION( '', ( 0.000000000000000, 0.000000000000000, 1.00000000000000 ) );
#208 = DIRECTION( '', ( 1.00000000000000, 0.000000000000000, 0.000000000000000 ) );
#209 = ORIENTED_EDGE( '', *, *, #235, .F. );
#210 = ORIENTED_EDGE( '', *, *, #225, .T. );
#211 = CARTESIAN_POINT( '', ( -2.60208521396521E-015, 0.000000000000000, -7.32050807568878 ) );
#212 = DIRECTION( '', ( -0.000000000000000, -0.000000000000000, -1.00000000000000 ) );
#213 = DIRECTION( '', ( 1.00000000000000, 0.000000000000000, 0.000000000000000 ) );
#214 = EDGE_CURVE( '', #236, #237, #238, .T. );
#215 = EDGE_CURVE( '', #237, #239, #240, .T. );
#216 = EDGE_CURVE( '', #241, #239, #242, .T. );
#217 = EDGE_CURVE( '', #236, #241, #243, .T. );
#218 = EDGE_CURVE( '', #244, #245, #246, .T. );
#219 = EDGE_CURVE( '', #247, #244, #248, .T. );
#220 = EDGE_CURVE( '', #249, #247, #250, .F. );
#221 = EDGE_CURVE( '', #245, #249, #251, .T. );
#222 = EDGE_CURVE( '', #239, #245, #252, .T. );
#223 = EDGE_CURVE( '', #253, #245, #254, .T. );
#224 = EDGE_CURVE( '', #241, #253, #255, .T. );
#225 = EDGE_CURVE( '', #256, #256, #257, .T. );
#226 = EDGE_CURVE( '', #253, #258, #259, .T. );
#227 = EDGE_CURVE( '', #258, #236, #260, .T. );
#228 = EDGE_CURVE( '', #258, #249, #261, .T. );
#229 = EDGE_CURVE( '', #249, #237, #262, .T. );
#230 = EDGE_CURVE( '', #263, #247, #264, .T. );
#231 = EDGE_CURVE( '', #237, #263, #265, .F. );
#232 = EDGE_CURVE( '', #266, #263, #267, .T. );
#233 = EDGE_CURVE( '', #266, #239, #268, .F. );
#234 = EDGE_CURVE( '', #244, #266, #269, .T. );
#235 = EDGE_CURVE( '', #270, #270, #271, .T. );
#236 = VERTEX_POINT( '', #272 );
#237 = VERTEX_POINT( '', #273 );
#238 = LINE( '', #274, #275 );
#239 = VERTEX_POINT( '', #276 );
#240 = LINE( '', #277, #278 );
#241 = VERTEX_POINT( '', #279 );
#242 = LINE( '', #280, #281 );
#243 = LINE( '', #282, #283 );
#244 = VERTEX_POINT( '', #284 );
#245 = VERTEX_POINT( '', #285 );
#246 = LINE( '', #286, #287 );
#247 = VERTEX_POINT( '', #288 );
#248 = LINE( '', #289, #290 );
#249 = VERTEX_POINT( '', #291 );
#250 = LINE( '', #292, #293 );
#251 = LINE( '', #294, #295 );
#252 = LINE( '', #296, #297 );
#253 = VERTEX_POINT( '', #298 );
#254 = LINE( '', #299, #300 );
#255 = LINE( '', #301, #302 );
#256 = VERTEX_POINT( '', #303 );
#257 = CIRCLE( '', #304, 2.10000000000000 );
#258 = VERTEX_POINT( '', #305 );
#259 = LINE( '', #306, #307 );
#260 = LINE( '', #308, #309 );
#261 = LINE( '', #310, #311 );
#262 = LINE( '', #312, #313 );
#263 = VERTEX_POINT( '', #314 );
#264 = LINE( '', #315, #316 );
#265 = LINE( '', #317, #318 );
#266 = VERTEX_POINT( '', #319 );
#267 = LINE( '', #320, #321 );
#268 = LINE( '', #322, #323 );
#269 = LINE( '', #324, #325 );
#270 = VERTEX_POINT( '', #326 );
#271 = CIRCLE( '', #327, 2.10000000000000 );
#272 = CARTESIAN_POINT( '', ( -5.00000000000000, 5.00000000000000, 10.0000000000000 ) );
#273 = CARTESIAN_POINT( '', ( -5.00000000000000, 5.00000000000000, 0.300000000000000 ) );
#274 = CARTESIAN_POINT( '', ( -5.00000000000000, 5.00000000000000, 10.0000000000000 ) );
#275 = VECTOR( '', #328, 1000.00000000000 );
#276 = CARTESIAN_POINT( '', ( -5.00000000000000, -5.00000000000000, 0.300000000000000 ) );
#277 = CARTESIAN_POINT( '', ( -5.00000000000000, 5.00000000000000, 0.300000000000000 ) );
#278 = VECTOR( '', #329, 1000.00000000000 );
#279 = CARTESIAN_POINT( '', ( -5.00000000000000, -5.00000000000000, 10.0000000000000 ) );
#280 = CARTESIAN_POINT( '', ( -5.00000000000000, -5.00000000000000, 10.0000000000000 ) );
#281 = VECTOR( '', #330, 1000.00000000000 );
#282 = CARTESIAN_POINT( '', ( -5.00000000000000, 5.00000000000000, 10.0000000000000 ) );
#283 = VECTOR( '', #331, 1000.00000000000 );
#284 = CARTESIAN_POINT( '', ( 4.70000000000000, -4.70000000000000, 0.000000000000000 ) );
#285 = CARTESIAN_POINT( '', ( 5.00000000000000, -5.00000000000000, 0.300000000000000 ) );
#286 = CARTESIAN_POINT( '', ( 1.66666666666667, -1.66666666666668, -3.03333333333333 ) );
#287 = VECTOR( '', #332, 1000.00000000000 );
#288 = CARTESIAN_POINT( '', ( 4.70000000000000, 4.70000000000000, 0.000000000000000 ) );
#289 = CARTESIAN_POINT( '', ( 4.70000000000000, -5.00000000000000, 0.000000000000000 ) );
#290 = VECTOR( '', #333, 1000.00000000000 );
#291 = CARTESIAN_POINT( '', ( 5.00000000000000, 5.00000000000000, 0.300000000000000 ) );
#292 = CARTESIAN_POINT( '', ( 1.66666666666667, 1.66666666666667, -3.03333333333334 ) );
#293 = VECTOR( '', #334, 1000.00000000000 );
#294 = CARTESIAN_POINT( '', ( 5.00000000000000, -5.00000000000000, 0.300000000000000 ) );
#295 = VECTOR( '', #335, 1000.00000000000 );
#296 = CARTESIAN_POINT( '', ( -5.00000000000000, -5.00000000000000, 0.300000000000000 ) );
#297 = VECTOR( '', #336, 1000.00000000000 );
#298 = CARTESIAN_POINT( '', ( 5.00000000000000, -5.00000000000000, 10.0000000000000 ) );
#299 = CARTESIAN_POINT( '', ( 5.00000000000000, -5.00000000000000, 10.0000000000000 ) );
#300 = VECTOR( '', #337, 1000.00000000000 );
#301 = CARTESIAN_POINT( '', ( -5.00000000000000, -5.00000000000000, 10.0000000000000 ) );
#302 = VECTOR( '', #338, 1000.00000000000 );
#303 = CARTESIAN_POINT( '', ( 2.10000000000000, 0.000000000000000, 10.0000000000000 ) );
#304 = AXIS2_PLACEMENT_3D( '', #339, #340, #341 );
#305 = CARTESIAN_POINT( '', ( 5.00000000000000, 5.00000000000000, 10.0000000000000 ) );
#306 = CARTESIAN_POINT( '', ( 5.00000000000000, -5.00000000000000, 10.0000000000000 ) );
#307 = VECTOR( '', #342, 1000.00000000000 );
#308 = CARTESIAN_POINT( '', ( 5.00000000000000, 5.00000000000000, 10.0000000000000 ) );
#309 = VECTOR( '', #343, 1000.00000000000 );
#310 = CARTESIAN_POINT( '', ( 5.00000000000000, 5.00000000000000, 10.0000000000000 ) );
#311 = VECTOR( '', #344, 1000.00000000000 );
#312 = CARTESIAN_POINT( '', ( 5.00000000000000, 5.00000000000000, 0.300000000000000 ) );
#313 = VECTOR( '', #345, 1000.00000000000 );
#314 = CARTESIAN_POINT( '', ( -4.70000000000000, 4.70000000000000, 0.000000000000000 ) );
#315 = CARTESIAN_POINT( '', ( -5.00000000000000, 4.70000000000000, 0.000000000000000 ) );
#316 = VECTOR( '', #346, 1000.00000000000 );
#317 = CARTESIAN_POINT( '', ( -1.66666666666667, 1.66666666666667, -3.03333333333334 ) );
#318 = VECTOR( '', #347, 1000.00000000000 );
#319 = CARTESIAN_POINT( '', ( -4.70000000000000, -4.70000000000000, 0.000000000000000 ) );
#320 = CARTESIAN_POINT( '', ( -4.70000000000000, -5.00000000000000, 0.000000000000000 ) );
#321 = VECTOR( '', #348, 1000.00000000000 );
#322 = CARTESIAN_POINT( '', ( -5.00000000000000, -5.00000000000000, 0.300000000000000 ) );
#323 = VECTOR( '', #349, 1000.00000000000 );
#324 = CARTESIAN_POINT( '', ( -5.00000000000000, -4.70000000000000, 0.000000000000000 ) );
#325 = VECTOR( '', #350, 1000.00000000000 );
#326 = CARTESIAN_POINT( '', ( 2.10000000000000, 0.000000000000000, 0.000000000000000 ) );
#327 = AXIS2_PLACEMENT_3D( '', #351, #352, #353 );
#328 = DIRECTION( '', ( 0.000000000000000, 0.000000000000000, -1.00000000000000 ) );
#329 = DIRECTION( '', ( 0.000000000000000, -1.00000000000000, 0.000000000000000 ) );
#330 = DIRECTION( '', ( 0.000000000000000, 0.000000000000000, -1.00000000000000 ) );
#331 = DIRECTION( '', ( 0.000000000000000, -1.00000000000000, 0.000000000000000 ) );
#332 = DIRECTION( '', ( 0.577350269189626, -0.577350269189626, 0.577350269189626 ) );
#333 = DIRECTION( '', ( 0.000000000000000, -1.00000000000000, 0.000000000000000 ) );
#334 = DIRECTION( '', ( 0.577350269189626, 0.577350269189626, 0.577350269189626 ) );
#335 = DIRECTION( '', ( 0.000000000000000, 1.00000000000000, 0.000000000000000 ) );
#336 = DIRECTION( '', ( 1.00000000000000, 0.000000000000000, 0.000000000000000 ) );
#337 = DIRECTION( '', ( 0.000000000000000, 0.000000000000000, -1.00000000000000 ) );
#338 = DIRECTION( '', ( 1.00000000000000, 0.000000000000000, 0.000000000000000 ) );
#339 = CARTESIAN_POINT( '', ( -2.60208521396521E-015, 0.000000000000000, 10.0000000000000 ) );
#340 = DIRECTION( '', ( 0.000000000000000, 0.000000000000000, 1.00000000000000 ) );
#341 = DIRECTION( '', ( 1.00000000000000, 0.000000000000000, 0.000000000000000 ) );
#342 = DIRECTION( '', ( 0.000000000000000, 1.00000000000000, 0.000000000000000 ) );
#343 = DIRECTION( '', ( -1.00000000000000, 0.000000000000000, 0.000000000000000 ) );
#344 = DIRECTION( '', ( 0.000000000000000, 0.000000000000000, -1.00000000000000 ) );
#345 = DIRECTION( '', ( -1.00000000000000, 0.000000000000000, 0.000000000000000 ) );
#346 = DIRECTION( '', ( 1.00000000000000, 0.000000000000000, 0.000000000000000 ) );
#347 = DIRECTION( '', ( -0.577350269189626, 0.577350269189626, 0.577350269189626 ) );
#348 = DIRECTION( '', ( 0.000000000000000, 1.00000000000000, 0.000000000000000 ) );
#349 = DIRECTION( '', ( 0.577350269189626, 0.577350269189626, -0.577350269189626 ) );
#350 = DIRECTION( '', ( -1.00000000000000, 0.000000000000000, 0.000000000000000 ) );
#351 = CARTESIAN_POINT( '', ( -2.60208521396521E-015, 0.000000000000000, 0.000000000000000 ) );
#352 = DIRECTION( '', ( 0.000000000000000, 0.000000000000000, 1.00000000000000 ) );
#353 = DIRECTION( '', ( 1.00000000000000, 0.000000000000000, 0.000000000000000 ) );
ENDSEC;
END-ISO-10303-21;
