ISO-10303-21;
HEADER;
FILE_DESCRIPTION( ( 'Unknown' ), '1' );
FILE_NAME( 's:/LEAVE 2D&3D CAD/LEAVE 3D-PAR/Metric/PT/PT21-3D/PT21-1010.stp', 'Unknown', ( 'Unknown' ), ( 'Unknown' ), 'XStep 1.0', 'Unknown', '  ' );
FILE_SCHEMA( ( 'CONFIG_CONTROL_DESIGN' ) );
ENDSEC;
DATA;
#1 = DESIGN_CONTEXT( '', #27, 'design' );
#2 = APPLICATION_PROTOCOL_DEFINITION( 'INTERNATIONAL STANDARD', 'config_control_design', 1994, #27 );
#3 = PRODUCT_CATEGORY_RELATIONSHIP( 'NONE', 'NONE', #28, #29 );
#4 = DATE_AND_TIME( #30, #31 );
#5 = DATE_TIME_ROLE( 'creation_date' );
#6 = DATE_TIME_ROLE( 'classification_date' );
#7 = PERSON_AND_ORGANIZATION_ROLE( 'creator' );
#8 = PERSON_AND_ORGANIZATION_ROLE( 'design_supplier' );
#9 = PERSON_AND_ORGANIZATION_ROLE( 'classification_officer' );
#10 = PERSON_AND_ORGANIZATION_ROLE( 'design_owner' );
#11 = APPROVAL_PERSON_ORGANIZATION( #32, #33, #34 );
#12 = APPROVAL_DATE_TIME( #4, #33 );
#13 = CC_DESIGN_APPROVAL( #33, ( #35, #36, #37 ) );
#14 = CC_DESIGN_DATE_AND_TIME_ASSIGNMENT( #4, #5, ( #37 ) );
#15 = CC_DESIGN_DATE_AND_TIME_ASSIGNMENT( #4, #6, ( #35 ) );
#16 = CC_DESIGN_PERSON_AND_ORGANIZATION_ASSIGNMENT( #32, #10, ( #38 ) );
#17 = CC_DESIGN_PERSON_AND_ORGANIZATION_ASSIGNMENT( #32, #7, ( #37 ) );
#18 = CC_DESIGN_PERSON_AND_ORGANIZATION_ASSIGNMENT( #32, #7, ( #36 ) );
#19 = CC_DESIGN_PERSON_AND_ORGANIZATION_ASSIGNMENT( #32, #8, ( #36 ) );
#20 = CC_DESIGN_SECURITY_CLASSIFICATION( #35, ( #36 ) );
#21 = CC_DESIGN_PERSON_AND_ORGANIZATION_ASSIGNMENT( #32, #9, ( #35 ) );
#22 = SHAPE_DEFINITION_REPRESENTATION( #39, #40 );
#23 =  ( GEOMETRIC_REPRESENTATION_CONTEXT( 3 )GLOBAL_UNCERTAINTY_ASSIGNED_CONTEXT( ( #43 ) )GLOBAL_UNIT_ASSIGNED_CONTEXT( ( #45, #46, #47 ) )REPRESENTATION_CONTEXT( 'NONE', 'WORKSPACE' ) );
#27 = APPLICATION_CONTEXT( 'CONFIGURATION CONTROLLED 3D DESIGNS OF MECHANICAL PARTS AND ASSEMBLIES' );
#28 = PRODUCT_CATEGORY( 'part', 'NONE' );
#29 = PRODUCT_RELATED_PRODUCT_CATEGORY( 'detail', ' ', ( #38 ) );
#30 = CALENDAR_DATE( 2010, 5, 0 );
#31 = LOCAL_TIME( 10, 20, 12.0000000000000, #49 );
#32 = PERSON_AND_ORGANIZATION( #50, #51 );
#33 = APPROVAL( #52, 'SOLID MODEL' );
#34 = APPROVAL_ROLE( 'APPROVED' );
#35 = SECURITY_CLASSIFICATION( '', '', #53 );
#36 = PRODUCT_DEFINITION_FORMATION_WITH_SPECIFIED_SOURCE( ' ', 'NONE', #38, .NOT_KNOWN. );
#37 = PRODUCT_DEFINITION( 'NONE', 'NONE', #36, #1 );
#38 = PRODUCT( '1', '1', 'PART-1-DESC', ( #54 ) );
#39 = PRODUCT_DEFINITION_SHAPE( 'NONE', 'NONE', #37 );
#40 = ADVANCED_BREP_SHAPE_REPRESENTATION( '1', ( #55, #56 ), #23 );
#43 = UNCERTAINTY_MEASURE_WITH_UNIT( LENGTH_MEASURE( 0.00100000000000000 ), #45, '', '' );
#45 =  ( CONVERSION_BASED_UNIT( 'MILLIMETRE', #59 )LENGTH_UNIT(  )NAMED_UNIT( #62 ) );
#46 =  ( NAMED_UNIT( #64 )PLANE_ANGLE_UNIT(  )SI_UNIT( $, .RADIAN. ) );
#47 =  ( NAMED_UNIT( #64 )SOLID_ANGLE_UNIT(  )SI_UNIT( $, .STERADIAN. ) );
#49 = COORDINATED_UNIVERSAL_TIME_OFFSET( 8, 0, .AHEAD. );
#50 = PERSON( '', 'UNSPECIFIED', $, $, $, $ );
#51 = ORGANIZATION( 'UNSPECIFIED', 'UNSPECIFIED', 'UNSPECIFIED' );
#52 = APPROVAL_STATUS( 'approved' );
#53 = SECURITY_CLASSIFICATION_LEVEL( 'unclassified' );
#54 = MECHANICAL_CONTEXT( '', #27, 'mechanical' );
#55 = MANIFOLD_SOLID_BREP( '1', #70 );
#56 = AXIS2_PLACEMENT_3D( '', #71, #72, #73 );
#59 = LENGTH_MEASURE_WITH_UNIT( LENGTH_MEASURE( 1.00000000000000 ), #74 );
#62 = DIMENSIONAL_EXPONENTS( 1.00000000000000, 0.000000000000000, 0.000000000000000, 0.000000000000000, 0.000000000000000, 0.000000000000000, 0.000000000000000 );
#64 = DIMENSIONAL_EXPONENTS( 0.000000000000000, 0.000000000000000, 0.000000000000000, 0.000000000000000, 0.000000000000000, 0.000000000000000, 0.000000000000000 );
#70 = CLOSED_SHELL( '', ( #75, #76, #77, #78, #79, #80, #81, #82, #83, #84, #85, #86, #87, #88, #89, #90 ) );
#71 = CARTESIAN_POINT( '', ( 0.000000000000000, 0.000000000000000, 0.000000000000000 ) );
#72 = DIRECTION( '', ( 0.000000000000000, 0.000000000000000, 1.00000000000000 ) );
#73 = DIRECTION( '', ( 1.00000000000000, 0.000000000000000, 0.000000000000000 ) );
#74 =  ( NAMED_UNIT( #62 )LENGTH_UNIT(  )SI_UNIT( .MILLI., .METRE. ) );
#75 = ADVANCED_FACE( '', ( #92, #93, #94, #95 ), #96, .T. );
#76 = ADVANCED_FACE( '', ( #97, #98 ), #99, .F. );
#77 = ADVANCED_FACE( '', ( #100 ), #101, .T. );
#78 = ADVANCED_FACE( '', ( #102 ), #103, .T. );
#79 = ADVANCED_FACE( '', ( #104 ), #105, .T. );
#80 = ADVANCED_FACE( '', ( #106 ), #107, .T. );
#81 = ADVANCED_FACE( '', ( #108, #109 ), #110, .T. );
#82 = ADVANCED_FACE( '', ( #111, #112 ), #113, .F. );
#83 = ADVANCED_FACE( '', ( #114, #115 ), #116, .T. );
#84 = ADVANCED_FACE( '', ( #117, #118 ), #119, .T. );
#85 = ADVANCED_FACE( '', ( #120, #121 ), #122, .T. );
#86 = ADVANCED_FACE( '', ( #123 ), #124, .T. );
#87 = ADVANCED_FACE( '', ( #125 ), #126, .T. );
#88 = ADVANCED_FACE( '', ( #127 ), #128, .T. );
#89 = ADVANCED_FACE( '', ( #129, #130 ), #131, .F. );
#90 = ADVANCED_FACE( '', ( #132 ), #133, .F. );
#92 = FACE_OUTER_BOUND( '', #134, .T. );
#93 = FACE_OUTER_BOUND( '', #135, .T. );
#94 = FACE_BOUND( '', #136, .T. );
#95 = FACE_BOUND( '', #137, .T. );
#96 = CYLINDRICAL_SURFACE( '', #138, 5.00000000000000 );
#97 = FACE_BOUND( '', #139, .T. );
#98 = FACE_OUTER_BOUND( '', #140, .T. );
#99 = CONICAL_SURFACE( '', #141, 2.56700000000000, 0.785398163397448 );
#100 = FACE_OUTER_BOUND( '', #142, .T. );
#101 = PLANE( '', #143 );
#102 = FACE_OUTER_BOUND( '', #144, .T. );
#103 = PLANE( '', #145 );
#104 = FACE_OUTER_BOUND( '', #146, .T. );
#105 = PLANE( '', #147 );
#106 = FACE_OUTER_BOUND( '', #148, .T. );
#107 = PLANE( '', #149 );
#108 = FACE_OUTER_BOUND( '', #150, .T. );
#109 = FACE_OUTER_BOUND( '', #151, .T. );
#110 = CYLINDRICAL_SURFACE( '', #152, 4.05000000000000 );
#111 = FACE_OUTER_BOUND( '', #153, .T. );
#112 = FACE_BOUND( '', #154, .T. );
#113 = PLANE( '', #155 );
#114 = FACE_BOUND( '', #156, .T. );
#115 = FACE_OUTER_BOUND( '', #157, .T. );
#116 = PLANE( '', #158 );
#117 = FACE_OUTER_BOUND( '', #159, .T. );
#118 = FACE_OUTER_BOUND( '', #160, .T. );
#119 = TOROIDAL_SURFACE( '', #161, 4.80000000000000, 0.200000000000000 );
#120 = FACE_OUTER_BOUND( '', #162, .T. );
#121 = FACE_OUTER_BOUND( '', #163, .T. );
#122 = TOROIDAL_SURFACE( '', #164, 4.80000000000000, 0.200000000000000 );
#123 = FACE_OUTER_BOUND( '', #165, .T. );
#124 = PLANE( '', #166 );
#125 = FACE_OUTER_BOUND( '', #167, .T. );
#126 = PLANE( '', #168 );
#127 = FACE_OUTER_BOUND( '', #169, .T. );
#128 = PLANE( '', #170 );
#129 = FACE_OUTER_BOUND( '', #171, .T. );
#130 = FACE_OUTER_BOUND( '', #172, .T. );
#131 = CYLINDRICAL_SURFACE( '', #173, 2.06700000000000 );
#132 = FACE_OUTER_BOUND( '', #174, .T. );
#133 = PLANE( '', #175 );
#134 = EDGE_LOOP( '', ( #176 ) );
#135 = EDGE_LOOP( '', ( #177 ) );
#136 = EDGE_LOOP( '', ( #178, #179, #180, #181 ) );
#137 = EDGE_LOOP( '', ( #182, #183, #184, #185 ) );
#138 = AXIS2_PLACEMENT_3D( '', #186, #187, #188 );
#139 = EDGE_LOOP( '', ( #189 ) );
#140 = EDGE_LOOP( '', ( #190 ) );
#141 = AXIS2_PLACEMENT_3D( '', #191, #192, #193 );
#142 = EDGE_LOOP( '', ( #194, #195, #196, #197 ) );
#143 = AXIS2_PLACEMENT_3D( '', #198, #199, #200 );
#144 = EDGE_LOOP( '', ( #201, #202 ) );
#145 = AXIS2_PLACEMENT_3D( '', #203, #204, #205 );
#146 = EDGE_LOOP( '', ( #206, #207 ) );
#147 = AXIS2_PLACEMENT_3D( '', #208, #209, #210 );
#148 = EDGE_LOOP( '', ( #211 ) );
#149 = AXIS2_PLACEMENT_3D( '', #212, #213, #214 );
#150 = EDGE_LOOP( '', ( #215 ) );
#151 = EDGE_LOOP( '', ( #216 ) );
#152 = AXIS2_PLACEMENT_3D( '', #217, #218, #219 );
#153 = EDGE_LOOP( '', ( #220 ) );
#154 = EDGE_LOOP( '', ( #221 ) );
#155 = AXIS2_PLACEMENT_3D( '', #222, #223, #224 );
#156 = EDGE_LOOP( '', ( #225 ) );
#157 = EDGE_LOOP( '', ( #226 ) );
#158 = AXIS2_PLACEMENT_3D( '', #227, #228, #229 );
#159 = EDGE_LOOP( '', ( #230 ) );
#160 = EDGE_LOOP( '', ( #231 ) );
#161 = AXIS2_PLACEMENT_3D( '', #232, #233, #234 );
#162 = EDGE_LOOP( '', ( #235 ) );
#163 = EDGE_LOOP( '', ( #236 ) );
#164 = AXIS2_PLACEMENT_3D( '', #237, #238, #239 );
#165 = EDGE_LOOP( '', ( #240, #241 ) );
#166 = AXIS2_PLACEMENT_3D( '', #242, #243, #244 );
#167 = EDGE_LOOP( '', ( #245, #246 ) );
#168 = AXIS2_PLACEMENT_3D( '', #247, #248, #249 );
#169 = EDGE_LOOP( '', ( #250, #251, #252, #253 ) );
#170 = AXIS2_PLACEMENT_3D( '', #254, #255, #256 );
#171 = EDGE_LOOP( '', ( #257 ) );
#172 = EDGE_LOOP( '', ( #258 ) );
#173 = AXIS2_PLACEMENT_3D( '', #259, #260, #261 );
#174 = EDGE_LOOP( '', ( #262 ) );
#175 = AXIS2_PLACEMENT_3D( '', #263, #264, #265 );
#176 = ORIENTED_EDGE( '', *, *, #266, .T. );
#177 = ORIENTED_EDGE( '', *, *, #267, .T. );
#178 = ORIENTED_EDGE( '', *, *, #268, .T. );
#179 = ORIENTED_EDGE( '', *, *, #269, .T. );
#180 = ORIENTED_EDGE( '', *, *, #270, .T. );
#181 = ORIENTED_EDGE( '', *, *, #271, .T. );
#182 = ORIENTED_EDGE( '', *, *, #272, .T. );
#183 = ORIENTED_EDGE( '', *, *, #273, .T. );
#184 = ORIENTED_EDGE( '', *, *, #274, .T. );
#185 = ORIENTED_EDGE( '', *, *, #275, .T. );
#186 = CARTESIAN_POINT( '', ( 3.30643715532042E-015, 0.000000000000000, 8.70000000000000 ) );
#187 = DIRECTION( '', ( -0.000000000000000, -0.000000000000000, 1.00000000000000 ) );
#188 = DIRECTION( '', ( -1.00000000000000, 0.000000000000000, 0.000000000000000 ) );
#189 = ORIENTED_EDGE( '', *, *, #276, .F. );
#190 = ORIENTED_EDGE( '', *, *, #277, .F. );
#191 = CARTESIAN_POINT( '', ( 3.46944695195362E-015, 0.000000000000000, 0.000000000000000 ) );
#192 = DIRECTION( '', ( -0.000000000000000, 0.000000000000000, -1.00000000000000 ) );
#193 = DIRECTION( '', ( -1.00000000000000, 0.000000000000000, 0.000000000000000 ) );
#194 = ORIENTED_EDGE( '', *, *, #278, .F. );
#195 = ORIENTED_EDGE( '', *, *, #273, .F. );
#196 = ORIENTED_EDGE( '', *, *, #279, .T. );
#197 = ORIENTED_EDGE( '', *, *, #275, .F. );
#198 = CARTESIAN_POINT( '', ( -4.20000000000000, -6.00000000000000, 1.15000000000000 ) );
#199 = DIRECTION( '', ( -1.00000000000000, 0.000000000000000, 0.000000000000000 ) );
#200 = DIRECTION( '', ( 0.000000000000000, 0.000000000000000, 1.00000000000000 ) );
#201 = ORIENTED_EDGE( '', *, *, #272, .F. );
#202 = ORIENTED_EDGE( '', *, *, #279, .F. );
#203 = CARTESIAN_POINT( '', ( -4.20000000000000, -6.00000000000000, 5.65000000000000 ) );
#204 = DIRECTION( '', ( 0.000000000000000, 0.000000000000000, -1.00000000000000 ) );
#205 = DIRECTION( '', ( -1.00000000000000, 0.000000000000000, 0.000000000000000 ) );
#206 = ORIENTED_EDGE( '', *, *, #278, .T. );
#207 = ORIENTED_EDGE( '', *, *, #274, .F. );
#208 = CARTESIAN_POINT( '', ( -5.00000000000000, -6.00000000000000, 1.15000000000000 ) );
#209 = DIRECTION( '', ( 0.000000000000000, 0.000000000000000, 1.00000000000000 ) );
#210 = DIRECTION( '', ( 1.00000000000000, 0.000000000000000, 0.000000000000000 ) );
#211 = ORIENTED_EDGE( '', *, *, #280, .T. );
#212 = CARTESIAN_POINT( '', ( 3.30643715532042E-015, 0.000000000000000, 10.0000000000000 ) );
#213 = DIRECTION( '', ( 0.000000000000000, 0.000000000000000, 1.00000000000000 ) );
#214 = DIRECTION( '', ( 1.00000000000000, 0.000000000000000, 0.000000000000000 ) );
#215 = ORIENTED_EDGE( '', *, *, #280, .F. );
#216 = ORIENTED_EDGE( '', *, *, #281, .T. );
#217 = CARTESIAN_POINT( '', ( 3.30643715532042E-015, 0.000000000000000, 10.0000000000000 ) );
#218 = DIRECTION( '', ( -0.000000000000000, -0.000000000000000, 1.00000000000000 ) );
#219 = DIRECTION( '', ( -1.00000000000000, 0.000000000000000, 0.000000000000000 ) );
#220 = ORIENTED_EDGE( '', *, *, #282, .T. );
#221 = ORIENTED_EDGE( '', *, *, #281, .F. );
#222 = CARTESIAN_POINT( '', ( 3.30643715532042E-015, 0.000000000000000, 8.70000000000000 ) );
#223 = DIRECTION( '', ( 0.000000000000000, 0.000000000000000, -1.00000000000000 ) );
#224 = DIRECTION( '', ( -1.00000000000000, 0.000000000000000, 0.000000000000000 ) );
#225 = ORIENTED_EDGE( '', *, *, #277, .T. );
#226 = ORIENTED_EDGE( '', *, *, #283, .T. );
#227 = CARTESIAN_POINT( '', ( 3.30643715532042E-015, 0.000000000000000, 0.000000000000000 ) );
#228 = DIRECTION( '', ( 0.000000000000000, 0.000000000000000, -1.00000000000000 ) );
#229 = DIRECTION( '', ( -1.00000000000000, 0.000000000000000, 0.000000000000000 ) );
#230 = ORIENTED_EDGE( '', *, *, #267, .F. );
#231 = ORIENTED_EDGE( '', *, *, #283, .F. );
#232 = CARTESIAN_POINT( '', ( 3.30643715532042E-015, 0.000000000000000, 0.200000000000000 ) );
#233 = DIRECTION( '', ( 0.000000000000000, 0.000000000000000, -1.00000000000000 ) );
#234 = DIRECTION( '', ( -1.00000000000000, 0.000000000000000, 0.000000000000000 ) );
#235 = ORIENTED_EDGE( '', *, *, #282, .F. );
#236 = ORIENTED_EDGE( '', *, *, #266, .F. );
#237 = CARTESIAN_POINT( '', ( 3.30643715532042E-015, 0.000000000000000, 8.50000000000000 ) );
#238 = DIRECTION( '', ( 0.000000000000000, 0.000000000000000, -1.00000000000000 ) );
#239 = DIRECTION( '', ( -1.00000000000000, 0.000000000000000, 0.000000000000000 ) );
#240 = ORIENTED_EDGE( '', *, *, #284, .T. );
#241 = ORIENTED_EDGE( '', *, *, #270, .F. );
#242 = CARTESIAN_POINT( '', ( 5.00000000000000, -6.00000000000000, 5.65000000000000 ) );
#243 = DIRECTION( '', ( 0.000000000000000, 0.000000000000000, -1.00000000000000 ) );
#244 = DIRECTION( '', ( -1.00000000000000, 0.000000000000000, 0.000000000000000 ) );
#245 = ORIENTED_EDGE( '', *, *, #268, .F. );
#246 = ORIENTED_EDGE( '', *, *, #285, .F. );
#247 = CARTESIAN_POINT( '', ( 4.20000000000000, -6.00000000000000, 1.15000000000000 ) );
#248 = DIRECTION( '', ( 0.000000000000000, 0.000000000000000, 1.00000000000000 ) );
#249 = DIRECTION( '', ( 1.00000000000000, 0.000000000000000, 0.000000000000000 ) );
#250 = ORIENTED_EDGE( '', *, *, #285, .T. );
#251 = ORIENTED_EDGE( '', *, *, #271, .F. );
#252 = ORIENTED_EDGE( '', *, *, #284, .F. );
#253 = ORIENTED_EDGE( '', *, *, #269, .F. );
#254 = CARTESIAN_POINT( '', ( 4.20000000000000, -6.00000000000000, 5.65000000000000 ) );
#255 = DIRECTION( '', ( 1.00000000000000, 0.000000000000000, 0.000000000000000 ) );
#256 = DIRECTION( '', ( 0.000000000000000, 0.000000000000000, -1.00000000000000 ) );
#257 = ORIENTED_EDGE( '', *, *, #276, .T. );
#258 = ORIENTED_EDGE( '', *, *, #286, .F. );
#259 = CARTESIAN_POINT( '', ( 3.46944695195362E-015, 0.000000000000000, 0.000000000000000 ) );
#260 = DIRECTION( '', ( -0.000000000000000, 0.000000000000000, -1.00000000000000 ) );
#261 = DIRECTION( '', ( 0.000000000000000, 1.00000000000000, 0.000000000000000 ) );
#262 = ORIENTED_EDGE( '', *, *, #286, .T. );
#263 = CARTESIAN_POINT( '', ( 3.46944695195362E-015, 0.000000000000000, 5.90000000000000 ) );
#264 = DIRECTION( '', ( 0.000000000000000, 0.000000000000000, 1.00000000000000 ) );
#265 = DIRECTION( '', ( 1.00000000000000, 0.000000000000000, 0.000000000000000 ) );
#266 = EDGE_CURVE( '', #287, #287, #288, .T. );
#267 = EDGE_CURVE( '', #289, #289, #290, .F. );
#268 = EDGE_CURVE( '', #291, #292, #293, .F. );
#269 = EDGE_CURVE( '', #292, #294, #295, .F. );
#270 = EDGE_CURVE( '', #294, #296, #297, .F. );
#271 = EDGE_CURVE( '', #296, #291, #298, .T. );
#272 = EDGE_CURVE( '', #299, #300, #301, .F. );
#273 = EDGE_CURVE( '', #300, #302, #303, .T. );
#274 = EDGE_CURVE( '', #302, #304, #305, .F. );
#275 = EDGE_CURVE( '', #304, #299, #306, .F. );
#276 = EDGE_CURVE( '', #307, #307, #308, .T. );
#277 = EDGE_CURVE( '', #309, #309, #310, .F. );
#278 = EDGE_CURVE( '', #302, #304, #311, .T. );
#279 = EDGE_CURVE( '', #300, #299, #312, .T. );
#280 = EDGE_CURVE( '', #313, #313, #314, .T. );
#281 = EDGE_CURVE( '', #315, #315, #316, .F. );
#282 = EDGE_CURVE( '', #317, #317, #318, .F. );
#283 = EDGE_CURVE( '', #319, #319, #320, .T. );
#284 = EDGE_CURVE( '', #294, #296, #321, .T. );
#285 = EDGE_CURVE( '', #292, #291, #322, .T. );
#286 = EDGE_CURVE( '', #323, #323, #324, .T. );
#287 = VERTEX_POINT( '', #325 );
#288 = CIRCLE( '', #326, 5.00000000000000 );
#289 = VERTEX_POINT( '', #327 );
#290 = CIRCLE( '', #328, 5.00000000000000 );
#291 = VERTEX_POINT( '', #329 );
#292 = VERTEX_POINT( '', #330 );
#293 = CIRCLE( '', #331, 5.00000000000000 );
#294 = VERTEX_POINT( '', #332 );
#295 = LINE( '', #333, #334 );
#296 = VERTEX_POINT( '', #335 );
#297 = CIRCLE( '', #336, 5.00000000000000 );
#298 = LINE( '', #337, #338 );
#299 = VERTEX_POINT( '', #339 );
#300 = VERTEX_POINT( '', #340 );
#301 = CIRCLE( '', #341, 5.00000000000000 );
#302 = VERTEX_POINT( '', #342 );
#303 = LINE( '', #343, #344 );
#304 = VERTEX_POINT( '', #345 );
#305 = CIRCLE( '', #346, 5.00000000000000 );
#306 = LINE( '', #347, #348 );
#307 = VERTEX_POINT( '', #349 );
#308 = CIRCLE( '', #350, 2.06700000000000 );
#309 = VERTEX_POINT( '', #351 );
#310 = CIRCLE( '', #352, 2.56700000000000 );
#311 = LINE( '', #353, #354 );
#312 = LINE( '', #355, #356 );
#313 = VERTEX_POINT( '', #357 );
#314 = CIRCLE( '', #358, 4.05000000000000 );
#315 = VERTEX_POINT( '', #359 );
#316 = CIRCLE( '', #360, 4.05000000000000 );
#317 = VERTEX_POINT( '', #361 );
#318 = CIRCLE( '', #362, 4.80000000000000 );
#319 = VERTEX_POINT( '', #363 );
#320 = CIRCLE( '', #364, 4.80000000000000 );
#321 = LINE( '', #365, #366 );
#322 = LINE( '', #367, #368 );
#323 = VERTEX_POINT( '', #369 );
#324 = CIRCLE( '', #370, 2.06700000000000 );
#325 = CARTESIAN_POINT( '', ( -5.00000000000000, 0.000000000000000, 8.50000000000000 ) );
#326 = AXIS2_PLACEMENT_3D( '', #371, #372, #373 );
#327 = CARTESIAN_POINT( '', ( -5.00000000000000, 0.000000000000000, 0.200000000000000 ) );
#328 = AXIS2_PLACEMENT_3D( '', #374, #375, #376 );
#329 = CARTESIAN_POINT( '', ( 4.20000000000000, 2.71293199325011, 1.15000000000000 ) );
#330 = CARTESIAN_POINT( '', ( 4.20000000000000, -2.71293199325011, 1.15000000000000 ) );
#331 = AXIS2_PLACEMENT_3D( '', #377, #378, #379 );
#332 = CARTESIAN_POINT( '', ( 4.20000000000000, -2.71293199325011, 5.65000000000000 ) );
#333 = CARTESIAN_POINT( '', ( 4.20000000000000, -2.71293199325011, 8.70000000000000 ) );
#334 = VECTOR( '', #380, 1000.00000000000 );
#335 = CARTESIAN_POINT( '', ( 4.20000000000000, 2.71293199325011, 5.65000000000000 ) );
#336 = AXIS2_PLACEMENT_3D( '', #381, #382, #383 );
#337 = CARTESIAN_POINT( '', ( 4.20000000000000, 2.71293199325011, 8.70000000000000 ) );
#338 = VECTOR( '', #384, 1000.00000000000 );
#339 = CARTESIAN_POINT( '', ( -4.20000000000000, 2.71293199325009, 5.65000000000000 ) );
#340 = CARTESIAN_POINT( '', ( -4.20000000000000, -2.71293199325009, 5.65000000000000 ) );
#341 = AXIS2_PLACEMENT_3D( '', #385, #386, #387 );
#342 = CARTESIAN_POINT( '', ( -4.20000000000000, -2.71293199325009, 1.15000000000000 ) );
#343 = CARTESIAN_POINT( '', ( -4.20000000000000, -2.71293199325009, 8.70000000000000 ) );
#344 = VECTOR( '', #388, 1000.00000000000 );
#345 = CARTESIAN_POINT( '', ( -4.20000000000000, 2.71293199325009, 1.15000000000000 ) );
#346 = AXIS2_PLACEMENT_3D( '', #389, #390, #391 );
#347 = CARTESIAN_POINT( '', ( -4.20000000000000, 2.71293199325009, 8.70000000000000 ) );
#348 = VECTOR( '', #392, 1000.00000000000 );
#349 = CARTESIAN_POINT( '', ( -2.06700000000000, 0.000000000000000, 0.500000000000000 ) );
#350 = AXIS2_PLACEMENT_3D( '', #393, #394, #395 );
#351 = CARTESIAN_POINT( '', ( -2.56700000000000, 0.000000000000000, 0.000000000000000 ) );
#352 = AXIS2_PLACEMENT_3D( '', #396, #397, #398 );
#353 = CARTESIAN_POINT( '', ( -4.20000000000000, -6.00000000000000, 1.15000000000000 ) );
#354 = VECTOR( '', #399, 1000.00000000000 );
#355 = CARTESIAN_POINT( '', ( -4.20000000000000, -6.00000000000000, 5.65000000000000 ) );
#356 = VECTOR( '', #400, 1000.00000000000 );
#357 = CARTESIAN_POINT( '', ( 3.30643715532042E-015, 4.05000000000000, 10.0000000000000 ) );
#358 = AXIS2_PLACEMENT_3D( '', #401, #402, #403 );
#359 = CARTESIAN_POINT( '', ( -4.05000000000000, 0.000000000000000, 8.70000000000000 ) );
#360 = AXIS2_PLACEMENT_3D( '', #404, #405, #406 );
#361 = CARTESIAN_POINT( '', ( -4.80000000000000, 0.000000000000000, 8.70000000000000 ) );
#362 = AXIS2_PLACEMENT_3D( '', #407, #408, #409 );
#363 = CARTESIAN_POINT( '', ( -4.80000000000000, 0.000000000000000, 0.000000000000000 ) );
#364 = AXIS2_PLACEMENT_3D( '', #410, #411, #412 );
#365 = CARTESIAN_POINT( '', ( 4.20000000000000, -6.00000000000000, 5.65000000000000 ) );
#366 = VECTOR( '', #413, 1000.00000000000 );
#367 = CARTESIAN_POINT( '', ( 4.20000000000000, -6.00000000000000, 1.15000000000000 ) );
#368 = VECTOR( '', #414, 1000.00000000000 );
#369 = CARTESIAN_POINT( '', ( 3.46944695195362E-015, 2.06700000000000, 5.90000000000000 ) );
#370 = AXIS2_PLACEMENT_3D( '', #415, #416, #417 );
#371 = CARTESIAN_POINT( '', ( 3.30643715532042E-015, 0.000000000000000, 8.50000000000000 ) );
#372 = DIRECTION( '', ( 0.000000000000000, 0.000000000000000, -1.00000000000000 ) );
#373 = DIRECTION( '', ( -1.00000000000000, 0.000000000000000, 0.000000000000000 ) );
#374 = CARTESIAN_POINT( '', ( 3.30643715532042E-015, 0.000000000000000, 0.200000000000000 ) );
#375 = DIRECTION( '', ( 0.000000000000000, 0.000000000000000, -1.00000000000000 ) );
#376 = DIRECTION( '', ( -1.00000000000000, 0.000000000000000, 0.000000000000000 ) );
#377 = CARTESIAN_POINT( '', ( 3.30643715532042E-015, 0.000000000000000, 1.15000000000000 ) );
#378 = DIRECTION( '', ( 0.000000000000000, 0.000000000000000, 1.00000000000000 ) );
#379 = DIRECTION( '', ( 1.00000000000000, 0.000000000000000, 0.000000000000000 ) );
#380 = DIRECTION( '', ( 0.000000000000000, 0.000000000000000, -1.00000000000000 ) );
#381 = CARTESIAN_POINT( '', ( 3.30643715532042E-015, 0.000000000000000, 5.65000000000000 ) );
#382 = DIRECTION( '', ( 0.000000000000000, 0.000000000000000, -1.00000000000000 ) );
#383 = DIRECTION( '', ( -1.00000000000000, 0.000000000000000, 0.000000000000000 ) );
#384 = DIRECTION( '', ( 0.000000000000000, 0.000000000000000, -1.00000000000000 ) );
#385 = CARTESIAN_POINT( '', ( 3.30643715532042E-015, 0.000000000000000, 5.65000000000000 ) );
#386 = DIRECTION( '', ( 0.000000000000000, 0.000000000000000, -1.00000000000000 ) );
#387 = DIRECTION( '', ( -1.00000000000000, 0.000000000000000, 0.000000000000000 ) );
#388 = DIRECTION( '', ( 0.000000000000000, 0.000000000000000, -1.00000000000000 ) );
#389 = CARTESIAN_POINT( '', ( 3.30643715532042E-015, 0.000000000000000, 1.15000000000000 ) );
#390 = DIRECTION( '', ( 0.000000000000000, 0.000000000000000, 1.00000000000000 ) );
#391 = DIRECTION( '', ( 1.00000000000000, 0.000000000000000, 0.000000000000000 ) );
#392 = DIRECTION( '', ( 0.000000000000000, 0.000000000000000, -1.00000000000000 ) );
#393 = CARTESIAN_POINT( '', ( 3.46944695195362E-015, 0.000000000000000, 0.500000000000000 ) );
#394 = DIRECTION( '', ( 0.000000000000000, 0.000000000000000, -1.00000000000000 ) );
#395 = DIRECTION( '', ( -1.00000000000000, 0.000000000000000, 0.000000000000000 ) );
#396 = CARTESIAN_POINT( '', ( 3.46944695195362E-015, 0.000000000000000, 0.000000000000000 ) );
#397 = DIRECTION( '', ( 0.000000000000000, 0.000000000000000, -1.00000000000000 ) );
#398 = DIRECTION( '', ( -1.00000000000000, 0.000000000000000, 0.000000000000000 ) );
#399 = DIRECTION( '', ( 0.000000000000000, 1.00000000000000, 0.000000000000000 ) );
#400 = DIRECTION( '', ( 0.000000000000000, 1.00000000000000, 0.000000000000000 ) );
#401 = CARTESIAN_POINT( '', ( 3.30643715532042E-015, 0.000000000000000, 10.0000000000000 ) );
#402 = DIRECTION( '', ( 0.000000000000000, -0.000000000000000, 1.00000000000000 ) );
#403 = DIRECTION( '', ( 0.000000000000000, 1.00000000000000, 0.000000000000000 ) );
#404 = CARTESIAN_POINT( '', ( 3.30643715532042E-015, 0.000000000000000, 8.70000000000000 ) );
#405 = DIRECTION( '', ( 0.000000000000000, 0.000000000000000, -1.00000000000000 ) );
#406 = DIRECTION( '', ( -1.00000000000000, 0.000000000000000, 0.000000000000000 ) );
#407 = CARTESIAN_POINT( '', ( 3.30643715532042E-015, 0.000000000000000, 8.70000000000000 ) );
#408 = DIRECTION( '', ( 0.000000000000000, 0.000000000000000, -1.00000000000000 ) );
#409 = DIRECTION( '', ( -1.00000000000000, 0.000000000000000, 0.000000000000000 ) );
#410 = CARTESIAN_POINT( '', ( 3.30643715532042E-015, 0.000000000000000, 0.000000000000000 ) );
#411 = DIRECTION( '', ( 0.000000000000000, 0.000000000000000, -1.00000000000000 ) );
#412 = DIRECTION( '', ( -1.00000000000000, 0.000000000000000, 0.000000000000000 ) );
#413 = DIRECTION( '', ( 0.000000000000000, 1.00000000000000, 0.000000000000000 ) );
#414 = DIRECTION( '', ( 0.000000000000000, 1.00000000000000, 0.000000000000000 ) );
#415 = CARTESIAN_POINT( '', ( 3.46944695195362E-015, 0.000000000000000, 5.90000000000000 ) );
#416 = DIRECTION( '', ( 0.000000000000000, 0.000000000000000, -1.00000000000000 ) );
#417 = DIRECTION( '', ( 0.000000000000000, 1.00000000000000, 0.000000000000000 ) );
ENDSEC;
END-ISO-10303-21;
