ISO-10303-21;
HEADER;
FILE_DESCRIPTION( ( 'Unknown' ), '1' );
FILE_NAME( 's:/LEAVE 2D&3D CAD/LEAVE 3D-PAR/Metric/PT/PT21-3D/PT21-1212.stp', 'Unknown', ( 'Unknown' ), ( 'Unknown' ), 'XStep 1.0', 'Unknown', '  ' );
FILE_SCHEMA( ( 'CONFIG_CONTROL_DESIGN' ) );
ENDSEC;
DATA;
#1 = DESIGN_CONTEXT( '', #27, 'design' );
#2 = APPLICATION_PROTOCOL_DEFINITION( 'INTERNATIONAL STANDARD', 'config_control_design', 1994, #27 );
#3 = PRODUCT_CATEGORY_RELATIONSHIP( 'NONE', 'NONE', #28, #29 );
#4 = DATE_AND_TIME( #30, #31 );
#5 = DATE_TIME_ROLE( 'creation_date' );
#6 = DATE_TIME_ROLE( 'classification_date' );
#7 = PERSON_AND_ORGANIZATION_ROLE( 'creator' );
#8 = PERSON_AND_ORGANIZATION_ROLE( 'design_supplier' );
#9 = PERSON_AND_ORGANIZATION_ROLE( 'classification_officer' );
#10 = PERSON_AND_ORGANIZATION_ROLE( 'design_owner' );
#11 = APPROVAL_PERSON_ORGANIZATION( #32, #33, #34 );
#12 = APPROVAL_DATE_TIME( #4, #33 );
#13 = CC_DESIGN_APPROVAL( #33, ( #35, #36, #37 ) );
#14 = CC_DESIGN_DATE_AND_TIME_ASSIGNMENT( #4, #5, ( #37 ) );
#15 = CC_DESIGN_DATE_AND_TIME_ASSIGNMENT( #4, #6, ( #35 ) );
#16 = CC_DESIGN_PERSON_AND_ORGANIZATION_ASSIGNMENT( #32, #10, ( #38 ) );
#17 = CC_DESIGN_PERSON_AND_ORGANIZATION_ASSIGNMENT( #32, #7, ( #37 ) );
#18 = CC_DESIGN_PERSON_AND_ORGANIZATION_ASSIGNMENT( #32, #7, ( #36 ) );
#19 = CC_DESIGN_PERSON_AND_ORGANIZATION_ASSIGNMENT( #32, #8, ( #36 ) );
#20 = CC_DESIGN_SECURITY_CLASSIFICATION( #35, ( #36 ) );
#21 = CC_DESIGN_PERSON_AND_ORGANIZATION_ASSIGNMENT( #32, #9, ( #35 ) );
#22 = SHAPE_DEFINITION_REPRESENTATION( #39, #40 );
#23 =  ( GEOMETRIC_REPRESENTATION_CONTEXT( 3 )GLOBAL_UNCERTAINTY_ASSIGNED_CONTEXT( ( #43 ) )GLOBAL_UNIT_ASSIGNED_CONTEXT( ( #45, #46, #47 ) )REPRESENTATION_CONTEXT( 'NONE', 'WORKSPACE' ) );
#27 = APPLICATION_CONTEXT( 'CONFIGURATION CONTROLLED 3D DESIGNS OF MECHANICAL PARTS AND ASSEMBLIES' );
#28 = PRODUCT_CATEGORY( 'part', 'NONE' );
#29 = PRODUCT_RELATED_PRODUCT_CATEGORY( 'detail', ' ', ( #38 ) );
#30 = CALENDAR_DATE( 2010, 5, 0 );
#31 = LOCAL_TIME( 10, 20, 13.0000000000000, #49 );
#32 = PERSON_AND_ORGANIZATION( #50, #51 );
#33 = APPROVAL( #52, 'SOLID MODEL' );
#34 = APPROVAL_ROLE( 'APPROVED' );
#35 = SECURITY_CLASSIFICATION( '', '', #53 );
#36 = PRODUCT_DEFINITION_FORMATION_WITH_SPECIFIED_SOURCE( ' ', 'NONE', #38, .NOT_KNOWN. );
#37 = PRODUCT_DEFINITION( 'NONE', 'NONE', #36, #1 );
#38 = PRODUCT( '1', '1', 'PART-1-DESC', ( #54 ) );
#39 = PRODUCT_DEFINITION_SHAPE( 'NONE', 'NONE', #37 );
#40 = ADVANCED_BREP_SHAPE_REPRESENTATION( '1', ( #55, #56 ), #23 );
#43 = UNCERTAINTY_MEASURE_WITH_UNIT( LENGTH_MEASURE( 0.00100000000000000 ), #45, '', '' );
#45 =  ( CONVERSION_BASED_UNIT( 'MILLIMETRE', #59 )LENGTH_UNIT(  )NAMED_UNIT( #62 ) );
#46 =  ( NAMED_UNIT( #64 )PLANE_ANGLE_UNIT(  )SI_UNIT( $, .RADIAN. ) );
#47 =  ( NAMED_UNIT( #64 )SOLID_ANGLE_UNIT(  )SI_UNIT( $, .STERADIAN. ) );
#49 = COORDINATED_UNIVERSAL_TIME_OFFSET( 8, 0, .AHEAD. );
#50 = PERSON( '', 'UNSPECIFIED', $, $, $, $ );
#51 = ORGANIZATION( 'UNSPECIFIED', 'UNSPECIFIED', 'UNSPECIFIED' );
#52 = APPROVAL_STATUS( 'approved' );
#53 = SECURITY_CLASSIFICATION_LEVEL( 'unclassified' );
#54 = MECHANICAL_CONTEXT( '', #27, 'mechanical' );
#55 = MANIFOLD_SOLID_BREP( '1', #70 );
#56 = AXIS2_PLACEMENT_3D( '', #71, #72, #73 );
#59 = LENGTH_MEASURE_WITH_UNIT( LENGTH_MEASURE( 1.00000000000000 ), #74 );
#62 = DIMENSIONAL_EXPONENTS( 1.00000000000000, 0.000000000000000, 0.000000000000000, 0.000000000000000, 0.000000000000000, 0.000000000000000, 0.000000000000000 );
#64 = DIMENSIONAL_EXPONENTS( 0.000000000000000, 0.000000000000000, 0.000000000000000, 0.000000000000000, 0.000000000000000, 0.000000000000000, 0.000000000000000 );
#70 = CLOSED_SHELL( '', ( #75, #76, #77, #78, #79, #80, #81, #82, #83, #84, #85, #86, #87, #88, #89, #90 ) );
#71 = CARTESIAN_POINT( '', ( 0.000000000000000, 0.000000000000000, 0.000000000000000 ) );
#72 = DIRECTION( '', ( 0.000000000000000, 0.000000000000000, 1.00000000000000 ) );
#73 = DIRECTION( '', ( 1.00000000000000, 0.000000000000000, 0.000000000000000 ) );
#74 =  ( NAMED_UNIT( #62 )LENGTH_UNIT(  )SI_UNIT( .MILLI., .METRE. ) );
#75 = ADVANCED_FACE( '', ( #92, #93 ), #94, .F. );
#76 = ADVANCED_FACE( '', ( #95, #96 ), #97, .F. );
#77 = ADVANCED_FACE( '', ( #98, #99, #100, #101 ), #102, .T. );
#78 = ADVANCED_FACE( '', ( #103 ), #104, .T. );
#79 = ADVANCED_FACE( '', ( #105 ), #106, .T. );
#80 = ADVANCED_FACE( '', ( #107, #108 ), #109, .F. );
#81 = ADVANCED_FACE( '', ( #110, #111 ), #112, .T. );
#82 = ADVANCED_FACE( '', ( #113, #114 ), #115, .T. );
#83 = ADVANCED_FACE( '', ( #116, #117 ), #118, .T. );
#84 = ADVANCED_FACE( '', ( #119 ), #120, .F. );
#85 = ADVANCED_FACE( '', ( #121, #122 ), #123, .T. );
#86 = ADVANCED_FACE( '', ( #124 ), #125, .T. );
#87 = ADVANCED_FACE( '', ( #126 ), #127, .T. );
#88 = ADVANCED_FACE( '', ( #128 ), #129, .T. );
#89 = ADVANCED_FACE( '', ( #130 ), #131, .T. );
#90 = ADVANCED_FACE( '', ( #132 ), #133, .T. );
#92 = FACE_OUTER_BOUND( '', #134, .T. );
#93 = FACE_BOUND( '', #135, .T. );
#94 = PLANE( '', #136 );
#95 = FACE_BOUND( '', #137, .T. );
#96 = FACE_OUTER_BOUND( '', #138, .T. );
#97 = CONICAL_SURFACE( '', #139, 2.95850000000000, 0.785398163397448 );
#98 = FACE_OUTER_BOUND( '', #140, .T. );
#99 = FACE_OUTER_BOUND( '', #141, .T. );
#100 = FACE_BOUND( '', #142, .T. );
#101 = FACE_BOUND( '', #143, .T. );
#102 = CYLINDRICAL_SURFACE( '', #144, 6.00000000000000 );
#103 = FACE_OUTER_BOUND( '', #145, .T. );
#104 = PLANE( '', #146 );
#105 = FACE_OUTER_BOUND( '', #147, .T. );
#106 = PLANE( '', #148 );
#107 = FACE_OUTER_BOUND( '', #149, .T. );
#108 = FACE_OUTER_BOUND( '', #150, .T. );
#109 = CYLINDRICAL_SURFACE( '', #151, 2.45850000000000 );
#110 = FACE_OUTER_BOUND( '', #152, .T. );
#111 = FACE_OUTER_BOUND( '', #153, .T. );
#112 = CYLINDRICAL_SURFACE( '', #154, 4.80000000000000 );
#113 = FACE_OUTER_BOUND( '', #155, .T. );
#114 = FACE_OUTER_BOUND( '', #156, .T. );
#115 = TOROIDAL_SURFACE( '', #157, 5.80000000000000, 0.200000000000000 );
#116 = FACE_BOUND( '', #158, .T. );
#117 = FACE_OUTER_BOUND( '', #159, .T. );
#118 = PLANE( '', #160 );
#119 = FACE_OUTER_BOUND( '', #161, .T. );
#120 = PLANE( '', #162 );
#121 = FACE_OUTER_BOUND( '', #163, .T. );
#122 = FACE_OUTER_BOUND( '', #164, .T. );
#123 = TOROIDAL_SURFACE( '', #165, 5.80000000000000, 0.200000000000000 );
#124 = FACE_OUTER_BOUND( '', #166, .T. );
#125 = PLANE( '', #167 );
#126 = FACE_OUTER_BOUND( '', #168, .T. );
#127 = PLANE( '', #169 );
#128 = FACE_OUTER_BOUND( '', #170, .T. );
#129 = PLANE( '', #171 );
#130 = FACE_OUTER_BOUND( '', #172, .T. );
#131 = PLANE( '', #173 );
#132 = FACE_OUTER_BOUND( '', #174, .T. );
#133 = PLANE( '', #175 );
#134 = EDGE_LOOP( '', ( #176 ) );
#135 = EDGE_LOOP( '', ( #177 ) );
#136 = AXIS2_PLACEMENT_3D( '', #178, #179, #180 );
#137 = EDGE_LOOP( '', ( #181 ) );
#138 = EDGE_LOOP( '', ( #182 ) );
#139 = AXIS2_PLACEMENT_3D( '', #183, #184, #185 );
#140 = EDGE_LOOP( '', ( #186 ) );
#141 = EDGE_LOOP( '', ( #187 ) );
#142 = EDGE_LOOP( '', ( #188, #189, #190, #191 ) );
#143 = EDGE_LOOP( '', ( #192, #193, #194, #195 ) );
#144 = AXIS2_PLACEMENT_3D( '', #196, #197, #198 );
#145 = EDGE_LOOP( '', ( #199, #200, #201, #202 ) );
#146 = AXIS2_PLACEMENT_3D( '', #203, #204, #205 );
#147 = EDGE_LOOP( '', ( #206, #207 ) );
#148 = AXIS2_PLACEMENT_3D( '', #208, #209, #210 );
#149 = EDGE_LOOP( '', ( #211 ) );
#150 = EDGE_LOOP( '', ( #212 ) );
#151 = AXIS2_PLACEMENT_3D( '', #213, #214, #215 );
#152 = EDGE_LOOP( '', ( #216 ) );
#153 = EDGE_LOOP( '', ( #217 ) );
#154 = AXIS2_PLACEMENT_3D( '', #218, #219, #220 );
#155 = EDGE_LOOP( '', ( #221 ) );
#156 = EDGE_LOOP( '', ( #222 ) );
#157 = AXIS2_PLACEMENT_3D( '', #223, #224, #225 );
#158 = EDGE_LOOP( '', ( #226 ) );
#159 = EDGE_LOOP( '', ( #227 ) );
#160 = AXIS2_PLACEMENT_3D( '', #228, #229, #230 );
#161 = EDGE_LOOP( '', ( #231 ) );
#162 = AXIS2_PLACEMENT_3D( '', #232, #233, #234 );
#163 = EDGE_LOOP( '', ( #235 ) );
#164 = EDGE_LOOP( '', ( #236 ) );
#165 = AXIS2_PLACEMENT_3D( '', #237, #238, #239 );
#166 = EDGE_LOOP( '', ( #240, #241, #242, #243 ) );
#167 = AXIS2_PLACEMENT_3D( '', #244, #245, #246 );
#168 = EDGE_LOOP( '', ( #247, #248 ) );
#169 = AXIS2_PLACEMENT_3D( '', #249, #250, #251 );
#170 = EDGE_LOOP( '', ( #252, #253 ) );
#171 = AXIS2_PLACEMENT_3D( '', #254, #255, #256 );
#172 = EDGE_LOOP( '', ( #257, #258 ) );
#173 = AXIS2_PLACEMENT_3D( '', #259, #260, #261 );
#174 = EDGE_LOOP( '', ( #262 ) );
#175 = AXIS2_PLACEMENT_3D( '', #263, #264, #265 );
#176 = ORIENTED_EDGE( '', *, *, #266, .T. );
#177 = ORIENTED_EDGE( '', *, *, #267, .F. );
#178 = CARTESIAN_POINT( '', ( 3.30643715532042E-015, 0.000000000000000, 10.2000000000000 ) );
#179 = DIRECTION( '', ( 0.000000000000000, 0.000000000000000, -1.00000000000000 ) );
#180 = DIRECTION( '', ( -1.00000000000000, 0.000000000000000, 0.000000000000000 ) );
#181 = ORIENTED_EDGE( '', *, *, #268, .F. );
#182 = ORIENTED_EDGE( '', *, *, #269, .F. );
#183 = CARTESIAN_POINT( '', ( 3.46944695195362E-015, 0.000000000000000, 0.000000000000000 ) );
#184 = DIRECTION( '', ( -0.000000000000000, 0.000000000000000, -1.00000000000000 ) );
#185 = DIRECTION( '', ( -1.00000000000000, 0.000000000000000, 0.000000000000000 ) );
#186 = ORIENTED_EDGE( '', *, *, #270, .T. );
#187 = ORIENTED_EDGE( '', *, *, #271, .T. );
#188 = ORIENTED_EDGE( '', *, *, #272, .T. );
#189 = ORIENTED_EDGE( '', *, *, #273, .T. );
#190 = ORIENTED_EDGE( '', *, *, #274, .T. );
#191 = ORIENTED_EDGE( '', *, *, #275, .T. );
#192 = ORIENTED_EDGE( '', *, *, #276, .T. );
#193 = ORIENTED_EDGE( '', *, *, #277, .T. );
#194 = ORIENTED_EDGE( '', *, *, #278, .T. );
#195 = ORIENTED_EDGE( '', *, *, #279, .T. );
#196 = CARTESIAN_POINT( '', ( 3.30643715532042E-015, 0.000000000000000, 10.2000000000000 ) );
#197 = DIRECTION( '', ( -0.000000000000000, -0.000000000000000, 1.00000000000000 ) );
#198 = DIRECTION( '', ( -1.00000000000000, 0.000000000000000, 0.000000000000000 ) );
#199 = ORIENTED_EDGE( '', *, *, #280, .F. );
#200 = ORIENTED_EDGE( '', *, *, #277, .F. );
#201 = ORIENTED_EDGE( '', *, *, #281, .T. );
#202 = ORIENTED_EDGE( '', *, *, #279, .F. );
#203 = CARTESIAN_POINT( '', ( -5.20000000000000, -6.00000000000000, 1.75000000000000 ) );
#204 = DIRECTION( '', ( -1.00000000000000, 0.000000000000000, 0.000000000000000 ) );
#205 = DIRECTION( '', ( 0.000000000000000, 0.000000000000000, 1.00000000000000 ) );
#206 = ORIENTED_EDGE( '', *, *, #276, .F. );
#207 = ORIENTED_EDGE( '', *, *, #281, .F. );
#208 = CARTESIAN_POINT( '', ( -5.20000000000000, -6.00000000000000, 6.25000000000000 ) );
#209 = DIRECTION( '', ( 0.000000000000000, 0.000000000000000, -1.00000000000000 ) );
#210 = DIRECTION( '', ( -1.00000000000000, 0.000000000000000, 0.000000000000000 ) );
#211 = ORIENTED_EDGE( '', *, *, #268, .T. );
#212 = ORIENTED_EDGE( '', *, *, #282, .F. );
#213 = CARTESIAN_POINT( '', ( 3.46944695195362E-015, 0.000000000000000, 0.000000000000000 ) );
#214 = DIRECTION( '', ( -0.000000000000000, 0.000000000000000, -1.00000000000000 ) );
#215 = DIRECTION( '', ( 0.000000000000000, 1.00000000000000, 0.000000000000000 ) );
#216 = ORIENTED_EDGE( '', *, *, #283, .F. );
#217 = ORIENTED_EDGE( '', *, *, #267, .T. );
#218 = CARTESIAN_POINT( '', ( 3.30643715532042E-015, 0.000000000000000, 12.0000000000000 ) );
#219 = DIRECTION( '', ( -0.000000000000000, -0.000000000000000, 1.00000000000000 ) );
#220 = DIRECTION( '', ( -1.00000000000000, 0.000000000000000, 0.000000000000000 ) );
#221 = ORIENTED_EDGE( '', *, *, #266, .F. );
#222 = ORIENTED_EDGE( '', *, *, #270, .F. );
#223 = CARTESIAN_POINT( '', ( 3.30643715532042E-015, 0.000000000000000, 10.0000000000000 ) );
#224 = DIRECTION( '', ( 0.000000000000000, 0.000000000000000, -1.00000000000000 ) );
#225 = DIRECTION( '', ( -1.00000000000000, 0.000000000000000, 0.000000000000000 ) );
#226 = ORIENTED_EDGE( '', *, *, #269, .T. );
#227 = ORIENTED_EDGE( '', *, *, #284, .T. );
#228 = CARTESIAN_POINT( '', ( 3.30643715532042E-015, 0.000000000000000, 0.000000000000000 ) );
#229 = DIRECTION( '', ( 0.000000000000000, 0.000000000000000, -1.00000000000000 ) );
#230 = DIRECTION( '', ( -1.00000000000000, 0.000000000000000, 0.000000000000000 ) );
#231 = ORIENTED_EDGE( '', *, *, #282, .T. );
#232 = CARTESIAN_POINT( '', ( 3.46944695195362E-015, 0.000000000000000, 7.90000000000000 ) );
#233 = DIRECTION( '', ( 0.000000000000000, 0.000000000000000, 1.00000000000000 ) );
#234 = DIRECTION( '', ( 1.00000000000000, 0.000000000000000, 0.000000000000000 ) );
#235 = ORIENTED_EDGE( '', *, *, #271, .F. );
#236 = ORIENTED_EDGE( '', *, *, #284, .F. );
#237 = CARTESIAN_POINT( '', ( 3.30643715532042E-015, 0.000000000000000, 0.200000000000000 ) );
#238 = DIRECTION( '', ( 0.000000000000000, 0.000000000000000, -1.00000000000000 ) );
#239 = DIRECTION( '', ( -1.00000000000000, 0.000000000000000, 0.000000000000000 ) );
#240 = ORIENTED_EDGE( '', *, *, #285, .T. );
#241 = ORIENTED_EDGE( '', *, *, #275, .F. );
#242 = ORIENTED_EDGE( '', *, *, #286, .F. );
#243 = ORIENTED_EDGE( '', *, *, #273, .F. );
#244 = CARTESIAN_POINT( '', ( 5.20000000000000, -6.00000000000000, 6.25000000000000 ) );
#245 = DIRECTION( '', ( 1.00000000000000, 0.000000000000000, 0.000000000000000 ) );
#246 = DIRECTION( '', ( 0.000000000000000, 0.000000000000000, -1.00000000000000 ) );
#247 = ORIENTED_EDGE( '', *, *, #272, .F. );
#248 = ORIENTED_EDGE( '', *, *, #285, .F. );
#249 = CARTESIAN_POINT( '', ( 5.20000000000000, -6.00000000000000, 1.75000000000000 ) );
#250 = DIRECTION( '', ( 0.000000000000000, 0.000000000000000, 1.00000000000000 ) );
#251 = DIRECTION( '', ( 1.00000000000000, 0.000000000000000, 0.000000000000000 ) );
#252 = ORIENTED_EDGE( '', *, *, #286, .T. );
#253 = ORIENTED_EDGE( '', *, *, #274, .F. );
#254 = CARTESIAN_POINT( '', ( 6.00000000000000, -6.00000000000000, 6.25000000000000 ) );
#255 = DIRECTION( '', ( 0.000000000000000, 0.000000000000000, -1.00000000000000 ) );
#256 = DIRECTION( '', ( -1.00000000000000, 0.000000000000000, 0.000000000000000 ) );
#257 = ORIENTED_EDGE( '', *, *, #280, .T. );
#258 = ORIENTED_EDGE( '', *, *, #278, .F. );
#259 = CARTESIAN_POINT( '', ( -6.00000000000000, -6.00000000000000, 1.75000000000000 ) );
#260 = DIRECTION( '', ( 0.000000000000000, 0.000000000000000, 1.00000000000000 ) );
#261 = DIRECTION( '', ( 1.00000000000000, 0.000000000000000, 0.000000000000000 ) );
#262 = ORIENTED_EDGE( '', *, *, #283, .T. );
#263 = CARTESIAN_POINT( '', ( 3.30643715532042E-015, 0.000000000000000, 12.0000000000000 ) );
#264 = DIRECTION( '', ( 0.000000000000000, 0.000000000000000, 1.00000000000000 ) );
#265 = DIRECTION( '', ( 1.00000000000000, 0.000000000000000, 0.000000000000000 ) );
#266 = EDGE_CURVE( '', #287, #287, #288, .F. );
#267 = EDGE_CURVE( '', #289, #289, #290, .F. );
#268 = EDGE_CURVE( '', #291, #291, #292, .T. );
#269 = EDGE_CURVE( '', #293, #293, #294, .F. );
#270 = EDGE_CURVE( '', #295, #295, #296, .T. );
#271 = EDGE_CURVE( '', #297, #297, #298, .F. );
#272 = EDGE_CURVE( '', #299, #300, #301, .F. );
#273 = EDGE_CURVE( '', #300, #302, #303, .F. );
#274 = EDGE_CURVE( '', #302, #304, #305, .F. );
#275 = EDGE_CURVE( '', #304, #299, #306, .T. );
#276 = EDGE_CURVE( '', #307, #308, #309, .F. );
#277 = EDGE_CURVE( '', #308, #310, #311, .T. );
#278 = EDGE_CURVE( '', #310, #312, #313, .F. );
#279 = EDGE_CURVE( '', #312, #307, #314, .F. );
#280 = EDGE_CURVE( '', #310, #312, #315, .T. );
#281 = EDGE_CURVE( '', #308, #307, #316, .T. );
#282 = EDGE_CURVE( '', #317, #317, #318, .T. );
#283 = EDGE_CURVE( '', #319, #319, #320, .T. );
#284 = EDGE_CURVE( '', #321, #321, #322, .T. );
#285 = EDGE_CURVE( '', #300, #299, #323, .T. );
#286 = EDGE_CURVE( '', #302, #304, #324, .T. );
#287 = VERTEX_POINT( '', #325 );
#288 = CIRCLE( '', #326, 5.80000000000000 );
#289 = VERTEX_POINT( '', #327 );
#290 = CIRCLE( '', #328, 4.80000000000000 );
#291 = VERTEX_POINT( '', #329 );
#292 = CIRCLE( '', #330, 2.45850000000000 );
#293 = VERTEX_POINT( '', #331 );
#294 = CIRCLE( '', #332, 2.95850000000000 );
#295 = VERTEX_POINT( '', #333 );
#296 = CIRCLE( '', #334, 6.00000000000000 );
#297 = VERTEX_POINT( '', #335 );
#298 = CIRCLE( '', #336, 6.00000000000000 );
#299 = VERTEX_POINT( '', #337 );
#300 = VERTEX_POINT( '', #338 );
#301 = CIRCLE( '', #339, 6.00000000000000 );
#302 = VERTEX_POINT( '', #340 );
#303 = LINE( '', #341, #342 );
#304 = VERTEX_POINT( '', #343 );
#305 = CIRCLE( '', #344, 6.00000000000000 );
#306 = LINE( '', #345, #346 );
#307 = VERTEX_POINT( '', #347 );
#308 = VERTEX_POINT( '', #348 );
#309 = CIRCLE( '', #349, 6.00000000000000 );
#310 = VERTEX_POINT( '', #350 );
#311 = LINE( '', #351, #352 );
#312 = VERTEX_POINT( '', #353 );
#313 = CIRCLE( '', #354, 6.00000000000000 );
#314 = LINE( '', #355, #356 );
#315 = LINE( '', #357, #358 );
#316 = LINE( '', #359, #360 );
#317 = VERTEX_POINT( '', #361 );
#318 = CIRCLE( '', #362, 2.45850000000000 );
#319 = VERTEX_POINT( '', #363 );
#320 = CIRCLE( '', #364, 4.80000000000000 );
#321 = VERTEX_POINT( '', #365 );
#322 = CIRCLE( '', #366, 5.80000000000000 );
#323 = LINE( '', #367, #368 );
#324 = LINE( '', #369, #370 );
#325 = CARTESIAN_POINT( '', ( -5.80000000000000, 0.000000000000000, 10.2000000000000 ) );
#326 = AXIS2_PLACEMENT_3D( '', #371, #372, #373 );
#327 = CARTESIAN_POINT( '', ( -4.80000000000000, 0.000000000000000, 10.2000000000000 ) );
#328 = AXIS2_PLACEMENT_3D( '', #374, #375, #376 );
#329 = CARTESIAN_POINT( '', ( -2.45850000000000, 0.000000000000000, 0.500000000000000 ) );
#330 = AXIS2_PLACEMENT_3D( '', #377, #378, #379 );
#331 = CARTESIAN_POINT( '', ( -2.95850000000000, 0.000000000000000, 0.000000000000000 ) );
#332 = AXIS2_PLACEMENT_3D( '', #380, #381, #382 );
#333 = CARTESIAN_POINT( '', ( -6.00000000000000, 0.000000000000000, 10.0000000000000 ) );
#334 = AXIS2_PLACEMENT_3D( '', #383, #384, #385 );
#335 = CARTESIAN_POINT( '', ( -6.00000000000000, 0.000000000000000, 0.200000000000000 ) );
#336 = AXIS2_PLACEMENT_3D( '', #386, #387, #388 );
#337 = CARTESIAN_POINT( '', ( 5.20000000000000, 2.99332590941915, 1.75000000000000 ) );
#338 = CARTESIAN_POINT( '', ( 5.20000000000000, -2.99332590941915, 1.75000000000000 ) );
#339 = AXIS2_PLACEMENT_3D( '', #389, #390, #391 );
#340 = CARTESIAN_POINT( '', ( 5.20000000000000, -2.99332590941915, 6.25000000000000 ) );
#341 = CARTESIAN_POINT( '', ( 5.20000000000000, -2.99332590941916, 10.2000000000000 ) );
#342 = VECTOR( '', #392, 1000.00000000000 );
#343 = CARTESIAN_POINT( '', ( 5.20000000000000, 2.99332590941915, 6.25000000000000 ) );
#344 = AXIS2_PLACEMENT_3D( '', #393, #394, #395 );
#345 = CARTESIAN_POINT( '', ( 5.20000000000000, 2.99332590941916, 10.2000000000000 ) );
#346 = VECTOR( '', #396, 1000.00000000000 );
#347 = CARTESIAN_POINT( '', ( -5.20000000000000, 2.99332590941914, 6.25000000000000 ) );
#348 = CARTESIAN_POINT( '', ( -5.20000000000000, -2.99332590941914, 6.25000000000000 ) );
#349 = AXIS2_PLACEMENT_3D( '', #397, #398, #399 );
#350 = CARTESIAN_POINT( '', ( -5.20000000000000, -2.99332590941914, 1.75000000000000 ) );
#351 = CARTESIAN_POINT( '', ( -5.20000000000000, -2.99332590941914, 10.2000000000000 ) );
#352 = VECTOR( '', #400, 1000.00000000000 );
#353 = CARTESIAN_POINT( '', ( -5.20000000000000, 2.99332590941914, 1.75000000000000 ) );
#354 = AXIS2_PLACEMENT_3D( '', #401, #402, #403 );
#355 = CARTESIAN_POINT( '', ( -5.20000000000000, 2.99332590941914, 10.2000000000000 ) );
#356 = VECTOR( '', #404, 1000.00000000000 );
#357 = CARTESIAN_POINT( '', ( -5.20000000000000, -6.00000000000000, 1.75000000000000 ) );
#358 = VECTOR( '', #405, 1000.00000000000 );
#359 = CARTESIAN_POINT( '', ( -5.20000000000000, -6.00000000000000, 6.25000000000000 ) );
#360 = VECTOR( '', #406, 1000.00000000000 );
#361 = CARTESIAN_POINT( '', ( 3.46944695195362E-015, 2.45850000000000, 7.90000000000000 ) );
#362 = AXIS2_PLACEMENT_3D( '', #407, #408, #409 );
#363 = CARTESIAN_POINT( '', ( 3.30643715532042E-015, 4.80000000000000, 12.0000000000000 ) );
#364 = AXIS2_PLACEMENT_3D( '', #410, #411, #412 );
#365 = CARTESIAN_POINT( '', ( -5.80000000000000, 0.000000000000000, 0.000000000000000 ) );
#366 = AXIS2_PLACEMENT_3D( '', #413, #414, #415 );
#367 = CARTESIAN_POINT( '', ( 5.20000000000000, -6.00000000000000, 1.75000000000000 ) );
#368 = VECTOR( '', #416, 1000.00000000000 );
#369 = CARTESIAN_POINT( '', ( 5.20000000000000, -6.00000000000000, 6.25000000000000 ) );
#370 = VECTOR( '', #417, 1000.00000000000 );
#371 = CARTESIAN_POINT( '', ( 3.30643715532042E-015, 0.000000000000000, 10.2000000000000 ) );
#372 = DIRECTION( '', ( 0.000000000000000, 0.000000000000000, -1.00000000000000 ) );
#373 = DIRECTION( '', ( -1.00000000000000, 0.000000000000000, 0.000000000000000 ) );
#374 = CARTESIAN_POINT( '', ( 3.30643715532042E-015, 0.000000000000000, 10.2000000000000 ) );
#375 = DIRECTION( '', ( 0.000000000000000, 0.000000000000000, -1.00000000000000 ) );
#376 = DIRECTION( '', ( -1.00000000000000, 0.000000000000000, 0.000000000000000 ) );
#377 = CARTESIAN_POINT( '', ( 3.46944695195362E-015, 0.000000000000000, 0.500000000000000 ) );
#378 = DIRECTION( '', ( 0.000000000000000, 0.000000000000000, -1.00000000000000 ) );
#379 = DIRECTION( '', ( -1.00000000000000, 0.000000000000000, 0.000000000000000 ) );
#380 = CARTESIAN_POINT( '', ( 3.46944695195362E-015, 0.000000000000000, 0.000000000000000 ) );
#381 = DIRECTION( '', ( 0.000000000000000, 0.000000000000000, -1.00000000000000 ) );
#382 = DIRECTION( '', ( -1.00000000000000, 0.000000000000000, 0.000000000000000 ) );
#383 = CARTESIAN_POINT( '', ( 3.30643715532042E-015, 0.000000000000000, 10.0000000000000 ) );
#384 = DIRECTION( '', ( 0.000000000000000, 0.000000000000000, -1.00000000000000 ) );
#385 = DIRECTION( '', ( -1.00000000000000, 0.000000000000000, 0.000000000000000 ) );
#386 = CARTESIAN_POINT( '', ( 3.30643715532042E-015, 0.000000000000000, 0.200000000000000 ) );
#387 = DIRECTION( '', ( 0.000000000000000, 0.000000000000000, -1.00000000000000 ) );
#388 = DIRECTION( '', ( -1.00000000000000, 0.000000000000000, 0.000000000000000 ) );
#389 = CARTESIAN_POINT( '', ( 3.30643715532042E-015, 0.000000000000000, 1.75000000000000 ) );
#390 = DIRECTION( '', ( 0.000000000000000, 0.000000000000000, 1.00000000000000 ) );
#391 = DIRECTION( '', ( 1.00000000000000, 0.000000000000000, 0.000000000000000 ) );
#392 = DIRECTION( '', ( 0.000000000000000, 0.000000000000000, -1.00000000000000 ) );
#393 = CARTESIAN_POINT( '', ( 3.30643715532042E-015, 0.000000000000000, 6.25000000000000 ) );
#394 = DIRECTION( '', ( 0.000000000000000, 0.000000000000000, -1.00000000000000 ) );
#395 = DIRECTION( '', ( -1.00000000000000, 0.000000000000000, 0.000000000000000 ) );
#396 = DIRECTION( '', ( 0.000000000000000, 0.000000000000000, -1.00000000000000 ) );
#397 = CARTESIAN_POINT( '', ( 3.30643715532042E-015, 0.000000000000000, 6.25000000000000 ) );
#398 = DIRECTION( '', ( 0.000000000000000, 0.000000000000000, -1.00000000000000 ) );
#399 = DIRECTION( '', ( -1.00000000000000, 0.000000000000000, 0.000000000000000 ) );
#400 = DIRECTION( '', ( 0.000000000000000, 0.000000000000000, -1.00000000000000 ) );
#401 = CARTESIAN_POINT( '', ( 3.30643715532042E-015, 0.000000000000000, 1.75000000000000 ) );
#402 = DIRECTION( '', ( 0.000000000000000, 0.000000000000000, 1.00000000000000 ) );
#403 = DIRECTION( '', ( 1.00000000000000, 0.000000000000000, 0.000000000000000 ) );
#404 = DIRECTION( '', ( 0.000000000000000, 0.000000000000000, -1.00000000000000 ) );
#405 = DIRECTION( '', ( 0.000000000000000, 1.00000000000000, 0.000000000000000 ) );
#406 = DIRECTION( '', ( 0.000000000000000, 1.00000000000000, 0.000000000000000 ) );
#407 = CARTESIAN_POINT( '', ( 3.46944695195362E-015, 0.000000000000000, 7.90000000000000 ) );
#408 = DIRECTION( '', ( 0.000000000000000, 0.000000000000000, -1.00000000000000 ) );
#409 = DIRECTION( '', ( 0.000000000000000, 1.00000000000000, 0.000000000000000 ) );
#410 = CARTESIAN_POINT( '', ( 3.30643715532042E-015, 0.000000000000000, 12.0000000000000 ) );
#411 = DIRECTION( '', ( 0.000000000000000, -0.000000000000000, 1.00000000000000 ) );
#412 = DIRECTION( '', ( 0.000000000000000, 1.00000000000000, 0.000000000000000 ) );
#413 = CARTESIAN_POINT( '', ( 3.30643715532042E-015, 0.000000000000000, 0.000000000000000 ) );
#414 = DIRECTION( '', ( 0.000000000000000, 0.000000000000000, -1.00000000000000 ) );
#415 = DIRECTION( '', ( -1.00000000000000, 0.000000000000000, 0.000000000000000 ) );
#416 = DIRECTION( '', ( 0.000000000000000, 1.00000000000000, 0.000000000000000 ) );
#417 = DIRECTION( '', ( 0.000000000000000, 1.00000000000000, 0.000000000000000 ) );
ENDSEC;
END-ISO-10303-21;
