ISO-10303-21;
HEADER;
FILE_DESCRIPTION( ( 'Unknown' ), '1' );
FILE_NAME( 's:/LEAVE 2D&3D CAD/LEAVE 3D-PAR/Metric/PT/PT18-3D/PT18-1025.stp', 'Unknown', ( 'Unknown' ), ( 'Unknown' ), 'XStep 1.0', 'Unknown', '  ' );
FILE_SCHEMA( ( 'CONFIG_CONTROL_DESIGN' ) );
ENDSEC;
DATA;
#1 = DESIGN_CONTEXT( '', #27, 'design' );
#2 = APPLICATION_PROTOCOL_DEFINITION( 'INTERNATIONAL STANDARD', 'config_control_design', 1994, #27 );
#3 = PRODUCT_CATEGORY_RELATIONSHIP( 'NONE', 'NONE', #28, #29 );
#4 = DATE_AND_TIME( #30, #31 );
#5 = DATE_TIME_ROLE( 'creation_date' );
#6 = DATE_TIME_ROLE( 'classification_date' );
#7 = PERSON_AND_ORGANIZATION_ROLE( 'creator' );
#8 = PERSON_AND_ORGANIZATION_ROLE( 'design_supplier' );
#9 = PERSON_AND_ORGANIZATION_ROLE( 'classification_officer' );
#10 = PERSON_AND_ORGANIZATION_ROLE( 'design_owner' );
#11 = APPROVAL_PERSON_ORGANIZATION( #32, #33, #34 );
#12 = APPROVAL_DATE_TIME( #4, #33 );
#13 = CC_DESIGN_APPROVAL( #33, ( #35, #36, #37 ) );
#14 = CC_DESIGN_DATE_AND_TIME_ASSIGNMENT( #4, #5, ( #37 ) );
#15 = CC_DESIGN_DATE_AND_TIME_ASSIGNMENT( #4, #6, ( #35 ) );
#16 = CC_DESIGN_PERSON_AND_ORGANIZATION_ASSIGNMENT( #32, #10, ( #38 ) );
#17 = CC_DESIGN_PERSON_AND_ORGANIZATION_ASSIGNMENT( #32, #7, ( #37 ) );
#18 = CC_DESIGN_PERSON_AND_ORGANIZATION_ASSIGNMENT( #32, #7, ( #36 ) );
#19 = CC_DESIGN_PERSON_AND_ORGANIZATION_ASSIGNMENT( #32, #8, ( #36 ) );
#20 = CC_DESIGN_SECURITY_CLASSIFICATION( #35, ( #36 ) );
#21 = CC_DESIGN_PERSON_AND_ORGANIZATION_ASSIGNMENT( #32, #9, ( #35 ) );
#22 = SHAPE_DEFINITION_REPRESENTATION( #39, #40 );
#23 =  ( GEOMETRIC_REPRESENTATION_CONTEXT( 3 )GLOBAL_UNCERTAINTY_ASSIGNED_CONTEXT( ( #43 ) )GLOBAL_UNIT_ASSIGNED_CONTEXT( ( #45, #46, #47 ) )REPRESENTATION_CONTEXT( 'NONE', 'WORKSPACE' ) );
#27 = APPLICATION_CONTEXT( 'CONFIGURATION CONTROLLED 3D DESIGNS OF MECHANICAL PARTS AND ASSEMBLIES' );
#28 = PRODUCT_CATEGORY( 'part', 'NONE' );
#29 = PRODUCT_RELATED_PRODUCT_CATEGORY( 'detail', ' ', ( #38 ) );
#30 = CALENDAR_DATE( 2010, 5, 0 );
#31 = LOCAL_TIME( 10, 19, 18.0000000000000, #49 );
#32 = PERSON_AND_ORGANIZATION( #50, #51 );
#33 = APPROVAL( #52, 'SOLID MODEL' );
#34 = APPROVAL_ROLE( 'APPROVED' );
#35 = SECURITY_CLASSIFICATION( '', '', #53 );
#36 = PRODUCT_DEFINITION_FORMATION_WITH_SPECIFIED_SOURCE( ' ', 'NONE', #38, .NOT_KNOWN. );
#37 = PRODUCT_DEFINITION( 'NONE', 'NONE', #36, #1 );
#38 = PRODUCT( '1', '1', 'PART-1-DESC', ( #54 ) );
#39 = PRODUCT_DEFINITION_SHAPE( 'NONE', 'NONE', #37 );
#40 = ADVANCED_BREP_SHAPE_REPRESENTATION( '1', ( #55, #56 ), #23 );
#43 = UNCERTAINTY_MEASURE_WITH_UNIT( LENGTH_MEASURE( 0.00100000000000000 ), #45, '', '' );
#45 =  ( CONVERSION_BASED_UNIT( 'MILLIMETRE', #59 )LENGTH_UNIT(  )NAMED_UNIT( #62 ) );
#46 =  ( NAMED_UNIT( #64 )PLANE_ANGLE_UNIT(  )SI_UNIT( $, .RADIAN. ) );
#47 =  ( NAMED_UNIT( #64 )SOLID_ANGLE_UNIT(  )SI_UNIT( $, .STERADIAN. ) );
#49 = COORDINATED_UNIVERSAL_TIME_OFFSET( 8, 0, .AHEAD. );
#50 = PERSON( '', 'UNSPECIFIED', $, $, $, $ );
#51 = ORGANIZATION( 'UNSPECIFIED', 'UNSPECIFIED', 'UNSPECIFIED' );
#52 = APPROVAL_STATUS( 'approved' );
#53 = SECURITY_CLASSIFICATION_LEVEL( 'unclassified' );
#54 = MECHANICAL_CONTEXT( '', #27, 'mechanical' );
#55 = MANIFOLD_SOLID_BREP( '1', #70 );
#56 = AXIS2_PLACEMENT_3D( '', #71, #72, #73 );
#59 = LENGTH_MEASURE_WITH_UNIT( LENGTH_MEASURE( 1.00000000000000 ), #74 );
#62 = DIMENSIONAL_EXPONENTS( 1.00000000000000, 0.000000000000000, 0.000000000000000, 0.000000000000000, 0.000000000000000, 0.000000000000000, 0.000000000000000 );
#64 = DIMENSIONAL_EXPONENTS( 0.000000000000000, 0.000000000000000, 0.000000000000000, 0.000000000000000, 0.000000000000000, 0.000000000000000, 0.000000000000000 );
#70 = CLOSED_SHELL( '', ( #75, #76, #77, #78, #79, #80, #81, #82, #83, #84, #85, #86, #87, #88 ) );
#71 = CARTESIAN_POINT( '', ( 0.000000000000000, 0.000000000000000, 0.000000000000000 ) );
#72 = DIRECTION( '', ( 0.000000000000000, 0.000000000000000, 1.00000000000000 ) );
#73 = DIRECTION( '', ( 1.00000000000000, 0.000000000000000, 0.000000000000000 ) );
#74 =  ( NAMED_UNIT( #62 )LENGTH_UNIT(  )SI_UNIT( .MILLI., .METRE. ) );
#75 = ADVANCED_FACE( '', ( #90, #91 ), #92, .T. );
#76 = ADVANCED_FACE( '', ( #93, #94 ), #95, .T. );
#77 = ADVANCED_FACE( '', ( #96 ), #97, .T. );
#78 = ADVANCED_FACE( '', ( #98 ), #99, .T. );
#79 = ADVANCED_FACE( '', ( #100 ), #101, .F. );
#80 = ADVANCED_FACE( '', ( #102, #103 ), #104, .T. );
#81 = ADVANCED_FACE( '', ( #105, #106 ), #107, .T. );
#82 = ADVANCED_FACE( '', ( #108 ), #109, .T. );
#83 = ADVANCED_FACE( '', ( #110 ), #111, .T. );
#84 = ADVANCED_FACE( '', ( #112, #113 ), #114, .F. );
#85 = ADVANCED_FACE( '', ( #115 ), #116, .T. );
#86 = ADVANCED_FACE( '', ( #117, #118 ), #119, .T. );
#87 = ADVANCED_FACE( '', ( #120 ), #121, .T. );
#88 = ADVANCED_FACE( '', ( #122 ), #123, .T. );
#90 = FACE_OUTER_BOUND( '', #124, .T. );
#91 = FACE_BOUND( '', #125, .T. );
#92 = PLANE( '', #126 );
#93 = FACE_BOUND( '', #127, .T. );
#94 = FACE_OUTER_BOUND( '', #128, .T. );
#95 = CONICAL_SURFACE( '', #129, 5.00000000000000, 0.785398163397448 );
#96 = FACE_OUTER_BOUND( '', #130, .T. );
#97 = PLANE( '', #131 );
#98 = FACE_OUTER_BOUND( '', #132, .T. );
#99 = PLANE( '', #133 );
#100 = FACE_OUTER_BOUND( '', #134, .T. );
#101 = PLANE( '', #135 );
#102 = FACE_OUTER_BOUND( '', #136, .T. );
#103 = FACE_OUTER_BOUND( '', #137, .T. );
#104 = CYLINDRICAL_SURFACE( '', #138, 5.00000000000000 );
#105 = FACE_OUTER_BOUND( '', #139, .T. );
#106 = FACE_OUTER_BOUND( '', #140, .T. );
#107 = CYLINDRICAL_SURFACE( '', #141, 3.25000000000000 );
#108 = FACE_OUTER_BOUND( '', #142, .T. );
#109 = PLANE( '', #143 );
#110 = FACE_OUTER_BOUND( '', #144, .T. );
#111 = PLANE( '', #145 );
#112 = FACE_OUTER_BOUND( '', #146, .T. );
#113 = FACE_BOUND( '', #147, .T. );
#114 = PLANE( '', #148 );
#115 = FACE_OUTER_BOUND( '', #149, .T. );
#116 = PLANE( '', #150 );
#117 = FACE_OUTER_BOUND( '', #151, .T. );
#118 = FACE_BOUND( '', #152, .T. );
#119 = CONICAL_SURFACE( '', #153, 3.80000000000000, 0.785398163397448 );
#120 = FACE_OUTER_BOUND( '', #154, .T. );
#121 = PLANE( '', #155 );
#122 = FACE_OUTER_BOUND( '', #156, .T. );
#123 = PLANE( '', #157 );
#124 = EDGE_LOOP( '', ( #158 ) );
#125 = EDGE_LOOP( '', ( #159 ) );
#126 = AXIS2_PLACEMENT_3D( '', #160, #161, #162 );
#127 = EDGE_LOOP( '', ( #163 ) );
#128 = EDGE_LOOP( '', ( #164 ) );
#129 = AXIS2_PLACEMENT_3D( '', #165, #166, #167 );
#130 = EDGE_LOOP( '', ( #168, #169, #170, #171 ) );
#131 = AXIS2_PLACEMENT_3D( '', #172, #173, #174 );
#132 = EDGE_LOOP( '', ( #175, #176, #177, #178 ) );
#133 = AXIS2_PLACEMENT_3D( '', #179, #180, #181 );
#134 = EDGE_LOOP( '', ( #182, #183, #184, #185, #186, #187 ) );
#135 = AXIS2_PLACEMENT_3D( '', #188, #189, #190 );
#136 = EDGE_LOOP( '', ( #191 ) );
#137 = EDGE_LOOP( '', ( #192 ) );
#138 = AXIS2_PLACEMENT_3D( '', #193, #194, #195 );
#139 = EDGE_LOOP( '', ( #196 ) );
#140 = EDGE_LOOP( '', ( #197 ) );
#141 = AXIS2_PLACEMENT_3D( '', #198, #199, #200 );
#142 = EDGE_LOOP( '', ( #201 ) );
#143 = AXIS2_PLACEMENT_3D( '', #202, #203, #204 );
#144 = EDGE_LOOP( '', ( #205, #206, #207, #208 ) );
#145 = AXIS2_PLACEMENT_3D( '', #209, #210, #211 );
#146 = EDGE_LOOP( '', ( #212 ) );
#147 = EDGE_LOOP( '', ( #213, #214, #215, #216, #217, #218 ) );
#148 = AXIS2_PLACEMENT_3D( '', #219, #220, #221 );
#149 = EDGE_LOOP( '', ( #222, #223, #224, #225 ) );
#150 = AXIS2_PLACEMENT_3D( '', #226, #227, #228 );
#151 = EDGE_LOOP( '', ( #229 ) );
#152 = EDGE_LOOP( '', ( #230 ) );
#153 = AXIS2_PLACEMENT_3D( '', #231, #232, #233 );
#154 = EDGE_LOOP( '', ( #234, #235, #236, #237 ) );
#155 = AXIS2_PLACEMENT_3D( '', #238, #239, #240 );
#156 = EDGE_LOOP( '', ( #241, #242, #243, #244 ) );
#157 = AXIS2_PLACEMENT_3D( '', #245, #246, #247 );
#158 = ORIENTED_EDGE( '', *, *, #248, .T. );
#159 = ORIENTED_EDGE( '', *, *, #249, .F. );
#160 = CARTESIAN_POINT( '', ( 0.000000000000000, 0.000000000000000, 23.5000000000000 ) );
#161 = DIRECTION( '', ( 0.000000000000000, 0.000000000000000, 1.00000000000000 ) );
#162 = DIRECTION( '', ( 1.00000000000000, 0.000000000000000, 0.000000000000000 ) );
#163 = ORIENTED_EDGE( '', *, *, #250, .F. );
#164 = ORIENTED_EDGE( '', *, *, #251, .F. );
#165 = CARTESIAN_POINT( '', ( 0.000000000000000, 0.000000000000000, 0.500000000000000 ) );
#166 = DIRECTION( '', ( -0.000000000000000, -0.000000000000000, 1.00000000000000 ) );
#167 = DIRECTION( '', ( 1.00000000000000, 0.000000000000000, 0.000000000000000 ) );
#168 = ORIENTED_EDGE( '', *, *, #252, .F. );
#169 = ORIENTED_EDGE( '', *, *, #253, .F. );
#170 = ORIENTED_EDGE( '', *, *, #254, .T. );
#171 = ORIENTED_EDGE( '', *, *, #255, .T. );
#172 = CARTESIAN_POINT( '', ( 2.50000000000000, 1.44337567297406, 4.00000000000000 ) );
#173 = DIRECTION( '', ( -0.500000000000001, -0.866025403784438, 0.000000000000000 ) );
#174 = DIRECTION( '', ( 0.866025403784438, -0.500000000000001, 0.000000000000000 ) );
#175 = ORIENTED_EDGE( '', *, *, #256, .F. );
#176 = ORIENTED_EDGE( '', *, *, #255, .F. );
#177 = ORIENTED_EDGE( '', *, *, #257, .T. );
#178 = ORIENTED_EDGE( '', *, *, #258, .T. );
#179 = CARTESIAN_POINT( '', ( 7.58941520739853E-016, 2.88675134594813, 4.00000000000000 ) );
#180 = DIRECTION( '', ( 0.500000000000000, -0.866025403784439, 0.000000000000000 ) );
#181 = DIRECTION( '', ( 0.866025403784439, 0.500000000000000, 0.000000000000000 ) );
#182 = ORIENTED_EDGE( '', *, *, #259, .F. );
#183 = ORIENTED_EDGE( '', *, *, #260, .F. );
#184 = ORIENTED_EDGE( '', *, *, #257, .F. );
#185 = ORIENTED_EDGE( '', *, *, #254, .F. );
#186 = ORIENTED_EDGE( '', *, *, #261, .F. );
#187 = ORIENTED_EDGE( '', *, *, #262, .F. );
#188 = CARTESIAN_POINT( '', ( -4.57465113100834E-015, -2.88675134594813, 4.00000000000000 ) );
#189 = DIRECTION( '', ( 0.000000000000000, 0.000000000000000, 1.00000000000000 ) );
#190 = DIRECTION( '', ( 1.00000000000000, 0.000000000000000, 0.000000000000000 ) );
#191 = ORIENTED_EDGE( '', *, *, #251, .T. );
#192 = ORIENTED_EDGE( '', *, *, #263, .T. );
#193 = CARTESIAN_POINT( '', ( 0.000000000000000, 0.000000000000000, 23.5000000000000 ) );
#194 = DIRECTION( '', ( -0.000000000000000, -0.000000000000000, 1.00000000000000 ) );
#195 = DIRECTION( '', ( -1.00000000000000, 0.000000000000000, 0.000000000000000 ) );
#196 = ORIENTED_EDGE( '', *, *, #264, .F. );
#197 = ORIENTED_EDGE( '', *, *, #249, .T. );
#198 = CARTESIAN_POINT( '', ( 0.000000000000000, 0.000000000000000, 25.0000000000000 ) );
#199 = DIRECTION( '', ( -0.000000000000000, -0.000000000000000, 1.00000000000000 ) );
#200 = DIRECTION( '', ( -1.00000000000000, 0.000000000000000, 0.000000000000000 ) );
#201 = ORIENTED_EDGE( '', *, *, #264, .T. );
#202 = CARTESIAN_POINT( '', ( 0.000000000000000, 0.000000000000000, 25.0000000000000 ) );
#203 = DIRECTION( '', ( 0.000000000000000, 0.000000000000000, 1.00000000000000 ) );
#204 = DIRECTION( '', ( 1.00000000000000, 0.000000000000000, 0.000000000000000 ) );
#205 = ORIENTED_EDGE( '', *, *, #265, .F. );
#206 = ORIENTED_EDGE( '', *, *, #258, .F. );
#207 = ORIENTED_EDGE( '', *, *, #260, .T. );
#208 = ORIENTED_EDGE( '', *, *, #266, .T. );
#209 = CARTESIAN_POINT( '', ( -2.50000000000000, 1.44337567297406, 4.00000000000000 ) );
#210 = DIRECTION( '', ( 1.00000000000000, 0.000000000000000, 0.000000000000000 ) );
#211 = DIRECTION( '', ( 0.000000000000000, 0.000000000000000, -1.00000000000000 ) );
#212 = ORIENTED_EDGE( '', *, *, #250, .T. );
#213 = ORIENTED_EDGE( '', *, *, #267, .T. );
#214 = ORIENTED_EDGE( '', *, *, #268, .T. );
#215 = ORIENTED_EDGE( '', *, *, #269, .T. );
#216 = ORIENTED_EDGE( '', *, *, #252, .T. );
#217 = ORIENTED_EDGE( '', *, *, #256, .T. );
#218 = ORIENTED_EDGE( '', *, *, #265, .T. );
#219 = CARTESIAN_POINT( '', ( 0.000000000000000, 0.000000000000000, 0.000000000000000 ) );
#220 = DIRECTION( '', ( 0.000000000000000, 0.000000000000000, 1.00000000000000 ) );
#221 = DIRECTION( '', ( 1.00000000000000, 0.000000000000000, 0.000000000000000 ) );
#222 = ORIENTED_EDGE( '', *, *, #267, .F. );
#223 = ORIENTED_EDGE( '', *, *, #266, .F. );
#224 = ORIENTED_EDGE( '', *, *, #259, .T. );
#225 = ORIENTED_EDGE( '', *, *, #270, .T. );
#226 = CARTESIAN_POINT( '', ( -2.50000000000000, -1.44337567297406, 4.00000000000000 ) );
#227 = DIRECTION( '', ( 0.500000000000000, 0.866025403784439, 0.000000000000000 ) );
#228 = DIRECTION( '', ( -0.866025403784439, 0.500000000000000, 0.000000000000000 ) );
#229 = ORIENTED_EDGE( '', *, *, #263, .F. );
#230 = ORIENTED_EDGE( '', *, *, #248, .F. );
#231 = CARTESIAN_POINT( '', ( 0.000000000000000, 0.000000000000000, 23.5000000000000 ) );
#232 = DIRECTION( '', ( -0.000000000000000, 0.000000000000000, -1.00000000000000 ) );
#233 = DIRECTION( '', ( -1.00000000000000, 0.000000000000000, 0.000000000000000 ) );
#234 = ORIENTED_EDGE( '', *, *, #268, .F. );
#235 = ORIENTED_EDGE( '', *, *, #270, .F. );
#236 = ORIENTED_EDGE( '', *, *, #262, .T. );
#237 = ORIENTED_EDGE( '', *, *, #271, .T. );
#238 = CARTESIAN_POINT( '', ( -4.73829314659329E-015, -2.88675134594813, 4.00000000000000 ) );
#239 = DIRECTION( '', ( -0.500000000000000, 0.866025403784438, 0.000000000000000 ) );
#240 = DIRECTION( '', ( -0.866025403784438, -0.500000000000000, 0.000000000000000 ) );
#241 = ORIENTED_EDGE( '', *, *, #269, .F. );
#242 = ORIENTED_EDGE( '', *, *, #271, .F. );
#243 = ORIENTED_EDGE( '', *, *, #261, .T. );
#244 = ORIENTED_EDGE( '', *, *, #253, .T. );
#245 = CARTESIAN_POINT( '', ( 2.50000000000000, -1.44337567297406, 4.00000000000000 ) );
#246 = DIRECTION( '', ( -1.00000000000000, 0.000000000000000, 0.000000000000000 ) );
#247 = DIRECTION( '', ( 0.000000000000000, 0.000000000000000, 1.00000000000000 ) );
#248 = EDGE_CURVE( '', #272, #272, #273, .T. );
#249 = EDGE_CURVE( '', #274, #274, #275, .T. );
#250 = EDGE_CURVE( '', #276, #276, #277, .F. );
#251 = EDGE_CURVE( '', #278, #278, #279, .T. );
#252 = EDGE_CURVE( '', #280, #281, #282, .T. );
#253 = EDGE_CURVE( '', #283, #280, #284, .T. );
#254 = EDGE_CURVE( '', #283, #285, #286, .T. );
#255 = EDGE_CURVE( '', #285, #281, #287, .T. );
#256 = EDGE_CURVE( '', #281, #288, #289, .T. );
#257 = EDGE_CURVE( '', #285, #290, #291, .T. );
#258 = EDGE_CURVE( '', #290, #288, #292, .T. );
#259 = EDGE_CURVE( '', #293, #294, #295, .T. );
#260 = EDGE_CURVE( '', #290, #293, #296, .T. );
#261 = EDGE_CURVE( '', #297, #283, #298, .T. );
#262 = EDGE_CURVE( '', #294, #297, #299, .T. );
#263 = EDGE_CURVE( '', #300, #300, #301, .F. );
#264 = EDGE_CURVE( '', #302, #302, #303, .T. );
#265 = EDGE_CURVE( '', #288, #304, #305, .T. );
#266 = EDGE_CURVE( '', #293, #304, #306, .T. );
#267 = EDGE_CURVE( '', #304, #307, #308, .T. );
#268 = EDGE_CURVE( '', #307, #309, #310, .T. );
#269 = EDGE_CURVE( '', #309, #280, #311, .T. );
#270 = EDGE_CURVE( '', #294, #307, #312, .T. );
#271 = EDGE_CURVE( '', #297, #309, #313, .T. );
#272 = VERTEX_POINT( '', #314 );
#273 = CIRCLE( '', #315, 3.80000000000000 );
#274 = VERTEX_POINT( '', #316 );
#275 = CIRCLE( '', #317, 3.25000000000000 );
#276 = VERTEX_POINT( '', #318 );
#277 = CIRCLE( '', #319, 4.50000000000000 );
#278 = VERTEX_POINT( '', #320 );
#279 = CIRCLE( '', #321, 5.00000000000000 );
#280 = VERTEX_POINT( '', #322 );
#281 = VERTEX_POINT( '', #323 );
#282 = LINE( '', #324, #325 );
#283 = VERTEX_POINT( '', #326 );
#284 = LINE( '', #327, #328 );
#285 = VERTEX_POINT( '', #329 );
#286 = LINE( '', #330, #331 );
#287 = LINE( '', #332, #333 );
#288 = VERTEX_POINT( '', #334 );
#289 = LINE( '', #335, #336 );
#290 = VERTEX_POINT( '', #337 );
#291 = LINE( '', #338, #339 );
#292 = LINE( '', #340, #341 );
#293 = VERTEX_POINT( '', #342 );
#294 = VERTEX_POINT( '', #343 );
#295 = LINE( '', #344, #345 );
#296 = LINE( '', #346, #347 );
#297 = VERTEX_POINT( '', #348 );
#298 = LINE( '', #349, #350 );
#299 = LINE( '', #351, #352 );
#300 = VERTEX_POINT( '', #353 );
#301 = CIRCLE( '', #354, 5.00000000000000 );
#302 = VERTEX_POINT( '', #355 );
#303 = CIRCLE( '', #356, 3.25000000000000 );
#304 = VERTEX_POINT( '', #357 );
#305 = LINE( '', #358, #359 );
#306 = LINE( '', #360, #361 );
#307 = VERTEX_POINT( '', #362 );
#308 = LINE( '', #363, #364 );
#309 = VERTEX_POINT( '', #365 );
#310 = LINE( '', #366, #367 );
#311 = LINE( '', #368, #369 );
#312 = LINE( '', #370, #371 );
#313 = LINE( '', #372, #373 );
#314 = CARTESIAN_POINT( '', ( 3.80000000000000, 0.000000000000000, 23.5000000000000 ) );
#315 = AXIS2_PLACEMENT_3D( '', #374, #375, #376 );
#316 = CARTESIAN_POINT( '', ( 3.25000000000000, 0.000000000000000, 23.5000000000000 ) );
#317 = AXIS2_PLACEMENT_3D( '', #377, #378, #379 );
#318 = CARTESIAN_POINT( '', ( 4.50000000000000, 0.000000000000000, 0.000000000000000 ) );
#319 = AXIS2_PLACEMENT_3D( '', #380, #381, #382 );
#320 = CARTESIAN_POINT( '', ( 5.00000000000000, 0.000000000000000, 0.500000000000000 ) );
#321 = AXIS2_PLACEMENT_3D( '', #383, #384, #385 );
#322 = CARTESIAN_POINT( '', ( 2.50000000000000, 1.44337567297406, 0.000000000000000 ) );
#323 = CARTESIAN_POINT( '', ( 4.33680868994202E-016, 2.88675134594813, 0.000000000000000 ) );
#324 = CARTESIAN_POINT( '', ( 2.50000000000000, 1.44337567297406, 0.000000000000000 ) );
#325 = VECTOR( '', #386, 999.999999999999 );
#326 = CARTESIAN_POINT( '', ( 2.50000000000000, 1.44337567297406, 4.00000000000000 ) );
#327 = CARTESIAN_POINT( '', ( 2.50000000000000, 1.44337567297406, 4.00000000000000 ) );
#328 = VECTOR( '', #387, 1000.00000000000 );
#329 = CARTESIAN_POINT( '', ( 4.33680868994202E-016, 2.88675134594813, 4.00000000000000 ) );
#330 = CARTESIAN_POINT( '', ( 2.50000000000000, 1.44337567297406, 4.00000000000000 ) );
#331 = VECTOR( '', #388, 999.999999999999 );
#332 = CARTESIAN_POINT( '', ( 4.33680868994202E-016, 2.88675134594813, 4.00000000000000 ) );
#333 = VECTOR( '', #389, 1000.00000000000 );
#334 = CARTESIAN_POINT( '', ( -2.50000000000000, 1.44337567297406, 0.000000000000000 ) );
#335 = CARTESIAN_POINT( '', ( 7.58941520739853E-016, 2.88675134594813, 0.000000000000000 ) );
#336 = VECTOR( '', #390, 1000.00000000000 );
#337 = CARTESIAN_POINT( '', ( -2.50000000000000, 1.44337567297406, 4.00000000000000 ) );
#338 = CARTESIAN_POINT( '', ( 7.58941520739853E-016, 2.88675134594813, 4.00000000000000 ) );
#339 = VECTOR( '', #391, 1000.00000000000 );
#340 = CARTESIAN_POINT( '', ( -2.50000000000000, 1.44337567297406, 4.00000000000000 ) );
#341 = VECTOR( '', #392, 1000.00000000000 );
#342 = CARTESIAN_POINT( '', ( -2.50000000000000, -1.44337567297406, 4.00000000000000 ) );
#343 = CARTESIAN_POINT( '', ( -4.73829314659329E-015, -2.88675134594813, 4.00000000000000 ) );
#344 = CARTESIAN_POINT( '', ( -2.50000000000000, -1.44337567297406, 4.00000000000000 ) );
#345 = VECTOR( '', #393, 1000.00000000000 );
#346 = CARTESIAN_POINT( '', ( -2.50000000000000, 1.44337567297406, 4.00000000000000 ) );
#347 = VECTOR( '', #394, 1000.00000000000 );
#348 = CARTESIAN_POINT( '', ( 2.50000000000000, -1.44337567297406, 4.00000000000000 ) );
#349 = CARTESIAN_POINT( '', ( 2.50000000000000, -1.44337567297406, 4.00000000000000 ) );
#350 = VECTOR( '', #395, 1000.00000000000 );
#351 = CARTESIAN_POINT( '', ( -4.73829314659329E-015, -2.88675134594813, 4.00000000000000 ) );
#352 = VECTOR( '', #396, 999.999999999999 );
#353 = CARTESIAN_POINT( '', ( 5.00000000000000, 0.000000000000000, 22.3000000000000 ) );
#354 = AXIS2_PLACEMENT_3D( '', #397, #398, #399 );
#355 = CARTESIAN_POINT( '', ( 3.25000000000000, 0.000000000000000, 25.0000000000000 ) );
#356 = AXIS2_PLACEMENT_3D( '', #400, #401, #402 );
#357 = CARTESIAN_POINT( '', ( -2.50000000000000, -1.44337567297406, 0.000000000000000 ) );
#358 = CARTESIAN_POINT( '', ( -2.50000000000000, 1.44337567297406, 0.000000000000000 ) );
#359 = VECTOR( '', #403, 1000.00000000000 );
#360 = CARTESIAN_POINT( '', ( -2.50000000000000, -1.44337567297406, 4.00000000000000 ) );
#361 = VECTOR( '', #404, 1000.00000000000 );
#362 = CARTESIAN_POINT( '', ( -4.73829314659329E-015, -2.88675134594813, 0.000000000000000 ) );
#363 = CARTESIAN_POINT( '', ( -2.50000000000000, -1.44337567297406, 0.000000000000000 ) );
#364 = VECTOR( '', #405, 1000.00000000000 );
#365 = CARTESIAN_POINT( '', ( 2.50000000000000, -1.44337567297406, 0.000000000000000 ) );
#366 = CARTESIAN_POINT( '', ( -4.73829314659329E-015, -2.88675134594813, 0.000000000000000 ) );
#367 = VECTOR( '', #406, 999.999999999999 );
#368 = CARTESIAN_POINT( '', ( 2.50000000000000, -1.44337567297406, 0.000000000000000 ) );
#369 = VECTOR( '', #407, 1000.00000000000 );
#370 = CARTESIAN_POINT( '', ( -4.73829314659329E-015, -2.88675134594813, 4.00000000000000 ) );
#371 = VECTOR( '', #408, 1000.00000000000 );
#372 = CARTESIAN_POINT( '', ( 2.50000000000000, -1.44337567297406, 4.00000000000000 ) );
#373 = VECTOR( '', #409, 1000.00000000000 );
#374 = CARTESIAN_POINT( '', ( 0.000000000000000, 0.000000000000000, 23.5000000000000 ) );
#375 = DIRECTION( '', ( 0.000000000000000, 0.000000000000000, 1.00000000000000 ) );
#376 = DIRECTION( '', ( 1.00000000000000, 0.000000000000000, 0.000000000000000 ) );
#377 = CARTESIAN_POINT( '', ( 0.000000000000000, 0.000000000000000, 23.5000000000000 ) );
#378 = DIRECTION( '', ( 0.000000000000000, 0.000000000000000, 1.00000000000000 ) );
#379 = DIRECTION( '', ( 1.00000000000000, 0.000000000000000, 0.000000000000000 ) );
#380 = CARTESIAN_POINT( '', ( 0.000000000000000, 0.000000000000000, 0.000000000000000 ) );
#381 = DIRECTION( '', ( 0.000000000000000, 0.000000000000000, 1.00000000000000 ) );
#382 = DIRECTION( '', ( 1.00000000000000, 0.000000000000000, 0.000000000000000 ) );
#383 = CARTESIAN_POINT( '', ( 0.000000000000000, 0.000000000000000, 0.500000000000000 ) );
#384 = DIRECTION( '', ( 0.000000000000000, 0.000000000000000, 1.00000000000000 ) );
#385 = DIRECTION( '', ( 1.00000000000000, 0.000000000000000, 0.000000000000000 ) );
#386 = DIRECTION( '', ( -0.866025403784438, 0.500000000000001, 0.000000000000000 ) );
#387 = DIRECTION( '', ( 0.000000000000000, 0.000000000000000, -1.00000000000000 ) );
#388 = DIRECTION( '', ( -0.866025403784438, 0.500000000000001, 0.000000000000000 ) );
#389 = DIRECTION( '', ( 0.000000000000000, 0.000000000000000, -1.00000000000000 ) );
#390 = DIRECTION( '', ( -0.866025403784439, -0.500000000000000, 0.000000000000000 ) );
#391 = DIRECTION( '', ( -0.866025403784439, -0.500000000000000, 0.000000000000000 ) );
#392 = DIRECTION( '', ( 0.000000000000000, 0.000000000000000, -1.00000000000000 ) );
#393 = DIRECTION( '', ( 0.866025403784439, -0.500000000000000, 0.000000000000000 ) );
#394 = DIRECTION( '', ( 0.000000000000000, -1.00000000000000, 0.000000000000000 ) );
#395 = DIRECTION( '', ( 0.000000000000000, 1.00000000000000, 0.000000000000000 ) );
#396 = DIRECTION( '', ( 0.866025403784438, 0.500000000000000, 0.000000000000000 ) );
#397 = CARTESIAN_POINT( '', ( 0.000000000000000, 0.000000000000000, 22.3000000000000 ) );
#398 = DIRECTION( '', ( 0.000000000000000, 0.000000000000000, 1.00000000000000 ) );
#399 = DIRECTION( '', ( 1.00000000000000, 0.000000000000000, 0.000000000000000 ) );
#400 = CARTESIAN_POINT( '', ( 0.000000000000000, 0.000000000000000, 25.0000000000000 ) );
#401 = DIRECTION( '', ( 0.000000000000000, 0.000000000000000, 1.00000000000000 ) );
#402 = DIRECTION( '', ( 1.00000000000000, 0.000000000000000, 0.000000000000000 ) );
#403 = DIRECTION( '', ( 0.000000000000000, -1.00000000000000, 0.000000000000000 ) );
#404 = DIRECTION( '', ( 0.000000000000000, 0.000000000000000, -1.00000000000000 ) );
#405 = DIRECTION( '', ( 0.866025403784439, -0.500000000000000, 0.000000000000000 ) );
#406 = DIRECTION( '', ( 0.866025403784438, 0.500000000000000, 0.000000000000000 ) );
#407 = DIRECTION( '', ( 0.000000000000000, 1.00000000000000, 0.000000000000000 ) );
#408 = DIRECTION( '', ( 0.000000000000000, 0.000000000000000, -1.00000000000000 ) );
#409 = DIRECTION( '', ( 0.000000000000000, 0.000000000000000, -1.00000000000000 ) );
ENDSEC;
END-ISO-10303-21;
